  0
SECTION
  2
HEADER
  9
$ACADVER
  1
AC1014
  9
$ACADMAINTVER
 70
     9
  9
$DWGCODEPAGE
  3
UNDEFINED
  9
$INSBASE
 10
0.0
 20
0.0
 30
0.0
  9
$EXTMIN
 10
1.000000000000000E+20
 20
1.000000000000000E+20
 30
1.000000000000000E+20
  9
$EXTMAX
 10
-1.000000000000000E+20
 20
-1.000000000000000E+20
 30
-1.000000000000000E+20
  9
$LIMMIN
 10
0.0
 20
0.0
  9
$LIMMAX
 10
12.0
 20
9.0
  9
$ORTHOMODE
 70
     0
  9
$REGENMODE
 70
     1
  9
$FILLMODE
 70
     1
  9
$QTEXTMODE
 70
     0
  9
$MIRRTEXT
 70
     1
  9
$DRAGMODE
 70
     2
  9
$LTSCALE
 40
1.0
  9
$OSMODE
 70
    37
  9
$ATTMODE
 70
     1
  9
$TEXTSIZE
 40
0.2
  9
$TRACEWID
 40
0.05
  9
$TEXTSTYLE
  7
STANDARD
  9
$CLAYER
  8
0
  9
$CELTYPE
  6
BYLAYER
  9
$CECOLOR
 62
   256
  9
$CELTSCALE
 40
1.0
  9
$DELOBJ
 70
     1
  9
$DISPSILH
 70
     0
  9
$DIMSCALE
 40
1.0
  9
$DIMASZ
 40
0.18
  9
$DIMEXO
 40
0.0625
  9
$DIMDLI
 40
0.38
  9
$DIMRND
 40
0.0
  9
$DIMDLE
 40
0.0
  9
$DIMEXE
 40
0.18
  9
$DIMTP
 40
0.0
  9
$DIMTM
 40
0.0
  9
$DIMTXT
 40
0.18
  9
$DIMCEN
 40
0.09
  9
$DIMTSZ
 40
0.0
  9
$DIMTOL
 70
     0
  9
$DIMLIM
 70
     0
  9
$DIMTIH
 70
     1
  9
$DIMTOH
 70
     1
  9
$DIMSE1
 70
     0
  9
$DIMSE2
 70
     0
  9
$DIMTAD
 70
     0
  9
$DIMZIN
 70
     0
  9
$DIMBLK
  1

  9
$DIMASO
 70
     1
  9
$DIMSHO
 70
     1
  9
$DIMPOST
  1

  9
$DIMAPOST
  1

  9
$DIMALT
 70
     0
  9
$DIMALTD
 70
     2
  9
$DIMALTF
 40
25.4
  9
$DIMLFAC
 40
1.0
  9
$DIMTOFL
 70
     0
  9
$DIMTVP
 40
0.0
  9
$DIMTIX
 70
     0
  9
$DIMSOXD
 70
     0
  9
$DIMSAH
 70
     0
  9
$DIMBLK1
  1

  9
$DIMBLK2
  1

  9
$DIMSTYLE
  2
STANDARD
  9
$DIMCLRD
 70
     0
  9
$DIMCLRE
 70
     0
  9
$DIMCLRT
 70
     0
  9
$DIMTFAC
 40
1.0
  9
$DIMGAP
 40
0.09
  9
$DIMJUST
 70
     0
  9
$DIMSD1
 70
     0
  9
$DIMSD2
 70
     0
  9
$DIMTOLJ
 70
     1
  9
$DIMTZIN
 70
     0
  9
$DIMALTZ
 70
     0
  9
$DIMALTTZ
 70
     0
  9
$DIMFIT
 70
     3
  9
$DIMUPT
 70
     0
  9
$DIMUNIT
 70
     2
  9
$DIMDEC
 70
     4
  9
$DIMTDEC
 70
     4
  9
$DIMALTU
 70
     2
  9
$DIMALTTD
 70
     2
  9
$DIMTXSTY
  7
STANDARD
  9
$DIMAUNIT
 70
     0
  9
$LUNITS
 70
     2
  9
$LUPREC
 70
     4
  9
$SKETCHINC
 40
0.1
  9
$FILLETRAD
 40
0.5
  9
$AUNITS
 70
     0
  9
$AUPREC
 70
     0
  9
$MENU
  1
.
  9
$ELEVATION
 40
0.0
  9
$PELEVATION
 40
0.0
  9
$THICKNESS
 40
0.0
  9
$LIMCHECK
 70
     0
  9
$CHAMFERA
 40
0.5
  9
$CHAMFERB
 40
0.5
  9
$CHAMFERC
 40
1.0
  9
$CHAMFERD
 40
0.0
  9
$SKPOLY
 70
     0
  9
$TDCREATE
 40
2457597.796967581
  9
$TDUPDATE
 40
2457597.796967581
  9
$TDINDWG
 40
0.0000000116
  9
$TDUSRTIMER
 40
0.0000000116
  9
$USRTIMER
 70
     1
  9
$ANGBASE
 50
0.0
  9
$ANGDIR
 70
     0
  9
$PDMODE
 70
     0
  9
$PDSIZE
 40
0.0
  9
$PLINEWID
 40
0.0
  9
$COORDS
 70
     1
  9
$SPLFRAME
 70
     0
  9
$SPLINETYPE
 70
     6
  9
$SPLINESEGS
 70
     8
  9
$ATTDIA
 70
     0
  9
$ATTREQ
 70
     1
  9
$HANDLING
 70
     1
  9
$HANDSEED
  5
7D7
  9
$SURFTAB1
 70
     6
  9
$SURFTAB2
 70
     6
  9
$SURFTYPE
 70
     6
  9
$SURFU
 70
     6
  9
$SURFV
 70
     6
  9
$UCSNAME
  2

  9
$UCSORG
 10
0.0
 20
0.0
 30
0.0
  9
$UCSXDIR
 10
1.0
 20
0.0
 30
0.0
  9
$UCSYDIR
 10
0.0
 20
1.0
 30
0.0
  9
$PUCSNAME
  2

  9
$PUCSORG
 10
0.0
 20
0.0
 30
0.0
  9
$PUCSXDIR
 10
1.0
 20
0.0
 30
0.0
  9
$PUCSYDIR
 10
0.0
 20
1.0
 30
0.0
  9
$USERI1
 70
     0
  9
$USERI2
 70
     0
  9
$USERI3
 70
     0
  9
$USERI4
 70
     0
  9
$USERI5
 70
     0
  9
$USERR1
 40
0.0
  9
$USERR2
 40
0.0
  9
$USERR3
 40
0.0
  9
$USERR4
 40
0.0
  9
$USERR5
 40
0.0
  9
$WORLDVIEW
 70
     1
  9
$SHADEDGE
 70
     3
  9
$SHADEDIF
 70
    70
  9
$TILEMODE
 70
     1
  9
$MAXACTVP
 70
    64
  9
$PINSBASE
 10
0.0
 20
0.0
 30
0.0
  9
$PLIMCHECK
 70
     0
  9
$PEXTMIN
 10
1.000000000000000E+20
 20
1.000000000000000E+20
 30
1.000000000000000E+20
  9
$PEXTMAX
 10
-1.000000000000000E+20
 20
-1.000000000000000E+20
 30
-1.000000000000000E+20
  9
$PLIMMIN
 10
0.0
 20
0.0
  9
$PLIMMAX
 10
12.0
 20
9.0
  9
$UNITMODE
 70
     0
  9
$VISRETAIN
 70
     1
  9
$PLINEGEN
 70
     0
  9
$PSLTSCALE
 70
     1
  9
$TREEDEPTH
 70
  3020
  9
$PICKSTYLE
 70
     1
  9
$CMLSTYLE
  2
STANDARD
  9
$CMLJUST
 70
     0
  9
$CMLSCALE
 40
1.0
  9
$PROXYGRAPHICS
 70
     1
  9
$MEASUREMENT
 70
     0
  0
ENDSEC
  0
SECTION
  2
CLASSES
  0
CLASS
  1
ACDBDICTIONARYWDFLT
  2
AcDbDictionaryWithDefault
  3
ObjectDBX Classes
 90
        0
280
     0
281
     0
  0
CLASS
  1
VISUALSTYLE
  2
AcDbVisualStyle
  3
ObjectDBX Classes
 90
     4095
280
     0
281
     0
  0
CLASS
  1
MATERIAL
  2
AcDbMaterial
  3
ObjectDBX Classes
 90
     1153
280
     0
281
     0
  0
CLASS
  1
SUN
  2
AcDbSun
  3
SCENEOE
 90
     1024
280
     0
281
     0
  0
CLASS
  1
DICTIONARYVAR
  2
AcDbDictionaryVar
  3
ObjectDBX Classes
 90
        0
280
     0
281
     0
  0
CLASS
  1
XRECORD
  2
AcDbXrecord
  3
AutoCAD 2000
 90
        0
280
     0
281
     0
  0
CLASS
  1
LWPOLYLINE
  2
AcDbPolyline
  3
AutoCAD 2000
 90
        0
280
     0
281
     1
  0
CLASS
  1
HATCH
  2
AcDbHatch
  3
AutoCAD 2000
 90
        0
280
     0
281
     1
  0
CLASS
  1
ACDBPLACEHOLDER
  2
AcDbPlaceHolder
  3
ObjectDBX Classes
 90
        0
280
     0
281
     0
  0
CLASS
  1
LAYOUT
  2
AcDbLayout
  3
ObjectDBX Classes
 90
        0
280
     0
281
     0
  0
ENDSEC
  0
SECTION
  2
TABLES
  0
TABLE
  2
VPORT
  5
8
330
0
100
AcDbSymbolTable
 70
     1
  0
VPORT
  5
29
330
8
100
AcDbSymbolTableRecord
100
AcDbViewportTableRecord
  2
*ACTIVE
 70
     0
 10
0.0
 20
0.0
 11
1.0
 21
1.0
 12
0.0
 22
0.0
 13
0.0
 23
0.0
 14
0.5
 24
0.5
 15
0.5
 25
0.5
 16
0.0
 26
0.0
 36
1.0
 17
105.0007777515277
 27
-148.5000416295416
 37
0.0
 40
297.0000832590831
 41
0.7070757462376333
 42
50.0
 43
0.0
 44
0.0
 50
0.0
 51
0.0
 71
     0
 72
   100
 73
     1
 74
     3
 75
     0
 76
     0
 77
     0
 78
     0
  0
ENDTAB
  0
TABLE
  2
LTYPE
  5
5
330
0
100
AcDbSymbolTable
 70
     1
  0
LTYPE
  5
14
330
5
100
AcDbSymbolTableRecord
100
AcDbLinetypeTableRecord
  2
BYBLOCK
 70
     0
  3

 72
    65
 73
     0
 40
0.0
  0
LTYPE
  5
15
330
5
100
AcDbSymbolTableRecord
100
AcDbLinetypeTableRecord
  2
BYLAYER
 70
     0
  3

 72
    65
 73
     0
 40
0.0
  0
LTYPE
  5
16
330
5
100
AcDbSymbolTableRecord
100
AcDbLinetypeTableRecord
  2
CONTINUOUS
 70
     0
  3
Solid line
 72
    65
 73
     0
 40
0.0
  0
ENDTAB
  0
TABLE
  2
LAYER
  5
2
330
0
100
AcDbSymbolTable
 70
     2
  0
LAYER
  5
10
330
2
100
AcDbSymbolTableRecord
100
AcDbLayerTableRecord
  2
0
 70
     0
 62
     7
  6
CONTINUOUS
  0
LAYER
  5
40
330
2
100
AcDbSymbolTableRecord
100
AcDbLayerTableRecord
  2
LIVELLO_1
 70
     0
 62
     7
  6
CONTINUOUS
  0
ENDTAB
  0
TABLE
  2
STYLE
  5
3
330
0
100
AcDbSymbolTable
 70
     1
  0
STYLE
  5
11
330
3
100
AcDbSymbolTableRecord
100
AcDbTextStyleTableRecord
  2
STANDARD
 70
     0
 40
0.0
 41
1.0
 50
0.0
 71
     0
 42
0.2
  3
txt
  4

  0
ENDTAB
  0
TABLE
  2
VIEW
  5
6
330
0
100
AcDbSymbolTable
 70
     0
  0
ENDTAB
  0
TABLE
  2
UCS
  5
7
330
0
100
AcDbSymbolTable
 70
     0
  0
ENDTAB
  0
TABLE
  2
APPID
  5
9
330
0
100
AcDbSymbolTable
 70
     1
  0
APPID
  5
12
330
9
100
AcDbSymbolTableRecord
100
AcDbRegAppTableRecord
  2
ACAD
 70
     0
  0
ENDTAB
  0
TABLE
  2
DIMSTYLE
  5
A
330
0
100
AcDbSymbolTable
 70
     1
  0
DIMSTYLE
105
27
330
A
100
AcDbSymbolTableRecord
100
AcDbDimStyleTableRecord
  2
STANDARD
 70
     0
  3

  4

  5

  6

  7

 40
1.0
 41
0.18
 42
0.0625
 43
0.38
 44
0.18
 45
0.0
 46
0.0
 47
0.0
 48
0.0
140
0.18
141
0.09
142
0.0
143
25.4
144
1.0
145
0.0
146
1.0
147
0.09
 71
     0
 72
     0
 73
     1
 74
     1
 75
     0
 76
     0
 77
     0
 78
     0
170
     0
171
     2
172
     0
173
     0
174
     0
175
     0
176
     0
177
     0
178
     0
270
     2
271
     4
272
     4
273
     2
274
     2
340
11
275
     0
280
     0
281
     0
282
     0
283
     1
284
     0
285
     0
286
     0
287
     3
288
     0
  0
ENDTAB
  0
TABLE
  2
BLOCK_RECORD
  5
1
330
0
100
AcDbSymbolTable
 70
     4
  0
BLOCK_RECORD
  5
1F
330
1
100
AcDbSymbolTableRecord
100
AcDbBlockTableRecord
  2
*MODEL_SPACE
  0
BLOCK_RECORD
  5
1B
330
1
100
AcDbSymbolTableRecord
100
AcDbBlockTableRecord
  2
*PAPER_SPACE
  0
BLOCK_RECORD
  5
753
330
1
100
AcDbSymbolTableRecord
100
AcDbBlockTableRecord
  2
BLOCK_2
  0
BLOCK_RECORD
  5
757
330
1
100
AcDbSymbolTableRecord
100
AcDbBlockTableRecord
  2
BLOCK_3
  0
BLOCK_RECORD
  5
75B
330
1
100
AcDbSymbolTableRecord
100
AcDbBlockTableRecord
  2
BLOCK_4
  0
ENDTAB
  0
ENDSEC
  0
SECTION
  2
BLOCKS
  0
BLOCK
  5
20
330
1F
100
AcDbEntity
  8
0
100
AcDbBlockBegin
  2
*MODEL_SPACE
 70
     0
 10
0.0
 20
0.0
 30
0.0
  3
*MODEL_SPACE
  1

  0
ENDBLK
  5
21
330
1F
100
AcDbEntity
  8
0
100
AcDbBlockEnd
  0
BLOCK
  5
1C
330
1B
100
AcDbEntity
 67
     1
  8
0
100
AcDbBlockBegin
  2
*PAPER_SPACE
 70
     0
 10
0.0
 20
0.0
 30
0.0
  3
*PAPER_SPACE
  1

  0
ENDBLK
  5
1D
330
1B
100
AcDbEntity
 67
     1
  8
0
100
AcDbBlockEnd
  0
BLOCK
  5
755
330
753
100
AcDbEntity
  8
0
100
AcDbBlockBegin
  2
BLOCK_2
 70
     0
 10
0.0
 20
0.0
 30
0.0
  3
BLOCK_2
  1

  0
INSERT
  5
758
330
753
100
AcDbEntity
  8
LIVELLO_1
100
AcDbBlockReference
  2
BLOCK_3
 10
0.0
 20
0.0
 30
0.0
  0
ENDBLK
  5
756
330
753
100
AcDbEntity
  8
0
100
AcDbBlockEnd
  0
BLOCK
  5
759
330
757
100
AcDbEntity
  8
0
100
AcDbBlockBegin
  2
BLOCK_3
 70
     0
 10
0.0
 20
0.0
 30
0.0
  3
BLOCK_3
  1

  0
INSERT
  5
75C
330
757
100
AcDbEntity
  8
LIVELLO_1
100
AcDbBlockReference
  2
BLOCK_4
 10
0.0
 20
0.0
 30
0.0
  0
ENDBLK
  5
75A
330
757
100
AcDbEntity
  8
0
100
AcDbBlockEnd
  0
BLOCK
  5
75D
330
75B
100
AcDbEntity
  8
0
100
AcDbBlockBegin
  2
BLOCK_4
 70
     0
 10
0.0
 20
0.0
 30
0.0
  3
BLOCK_4
  1

  0
POLYLINE
  5
75F
330
75B
100
AcDbEntity
  8
LIVELLO_1
100
AcDb2dPolyline
 66
     1
 10
0.0
 20
0.0
 30
0.0
  0
VERTEX
  5
760
330
75F
100
AcDbEntity
  8
LIVELLO_1
100
AcDbVertex
100
AcDb2dVertex
 10
82.87211640723336
 20
-102.8626274699441
 30
0.0
  0
VERTEX
  5
761
330
75F
100
AcDbEntity
  8
LIVELLO_1
100
AcDbVertex
100
AcDb2dVertex
 10
82.87211640723336
 20
-97.67775876464306
 30
0.0
  0
VERTEX
  5
762
330
75F
100
AcDbEntity
  8
LIVELLO_1
100
AcDbVertex
100
AcDb2dVertex
 10
83.46467283069633
 20
-97.67775876464306
 30
0.0
  0
VERTEX
  5
763
330
75F
100
AcDbEntity
  8
LIVELLO_1
100
AcDbVertex
100
AcDb2dVertex
 10
83.46467283069633
 20
-102.8626274699441
 30
0.0
  0
VERTEX
  5
764
330
75F
100
AcDbEntity
  8
LIVELLO_1
100
AcDbVertex
100
AcDb2dVertex
 10
82.87211640723336
 20
-102.8626274699441
 30
0.0
  0
SEQEND
  5
765
330
75F
100
AcDbEntity
  8
LIVELLO_1
  0
HATCH
  5
766
330
75B
100
AcDbEntity
  8
LIVELLO_1
 62
     7
100
AcDbHatch
 10
0.0
 20
0.0
 30
0.0
210
0.0
220
0.0
230
1.0
  2
SOLID
 70
     1
 71
     0
 91
        1
 92
        1
 93
        4
 72
     1
 10
82.87211640723336
 20
-102.8626274699441
 11
82.87211640723336
 21
-97.67775876464306
 72
     1
 10
82.87211640723336
 20
-97.67775876464306
 11
83.46467283069633
 21
-97.67775876464306
 72
     1
 10
83.46467283069633
 20
-97.67775876464306
 11
83.46467283069633
 21
-102.8626274699441
 72
     1
 10
83.46467283069633
 20
-102.8626274699441
 11
82.87211640723336
 21
-102.8626274699441
 97
        0
 75
     2
 76
     1
 98
        0
  0
SPLINE
  5
767
330
75B
100
AcDbEntity
  8
LIVELLO_1
100
AcDbSpline
210
0.0
220
0.0
230
1.0
 70
    11
 71
     3
 72
    17
 73
    13
 74
     0
 42
0.0000000001
 43
0.0000000001
 12
1.0
 22
0.0
 32
0.0
 13
1.0
 23
0.0
 33
0.0
 40
0.0
 40
0.0
 40
0.0
 40
0.0
 40
1.0
 40
1.0
 40
1.0
 40
2.0
 40
2.0
 40
2.0
 40
3.0
 40
3.0
 40
3.0
 40
4.0
 40
4.0
 40
4.0
 40
4.0
 10
89.97590329781853
 20
-100.2701931172936
 30
0.0
 10
89.97590329781853
 20
-101.7291910552969
 30
0.0
 10
88.77563203075748
 20
-102.8922552911172
 30
0.0
 10
87.2646131509269
 20
-102.8922552911172
 30
0.0
 10
85.7463595705773
 20
-102.8922552911172
 30
0.0
 10
84.54643281306478
 20
-101.7291910552969
 30
0.0
 10
84.54643281306478
 20
-100.2701931172936
 30
0.0
 10
84.54643281306478
 20
-98.80361596922272
 30
0.0
 10
85.7463595705773
 20
-97.66294485405649
 30
0.0
 10
87.2646131509269
 20
-97.66294485405649
 30
0.0
 10
88.77563203075748
 20
-97.66294485405649
 30
0.0
 10
89.97590329781853
 20
-98.81119517929027
 30
0.0
 10
89.97590329781853
 20
-100.2701931172936
 30
0.0
  0
SPLINE
  5
768
330
75B
100
AcDbEntity
  8
LIVELLO_1
100
AcDbSpline
210
0.0
220
0.0
230
1.0
 70
    11
 71
     3
 72
    17
 73
    13
 74
     0
 42
0.0000000001
 43
0.0000000001
 12
1.0
 22
0.0
 32
0.0
 13
1.0
 23
0.0
 33
0.0
 40
0.0
 40
0.0
 40
0.0
 40
0.0
 40
1.0
 40
1.0
 40
1.0
 40
2.0
 40
2.0
 40
2.0
 40
3.0
 40
3.0
 40
3.0
 40
4.0
 40
4.0
 40
4.0
 40
4.0
 10
85.14656844659531
 20
-100.2701931172936
 30
0.0
 10
85.14656844659531
 20
-101.4108642324598
 30
0.0
 10
86.10912812517411
 20
-102.3217474787598
 30
0.0
 10
87.2646131509269
 20
-102.3217474787598
 30
0.0
 10
88.4200981766797
 20
-102.3217474787598
 30
0.0
 10
89.36818845422046
 20
-101.4108642324598
 30
0.0
 10
89.36818845422046
 20
-100.2701931172936
 30
0.0
 10
89.36818845422046
 20
-99.12952200212735
 30
0.0
 10
88.4200981766797
 20
-98.22587345634632
 30
0.0
 10
87.2646131509269
 20
-98.22587345634632
 30
0.0
 10
86.10912812517411
 20
-98.22587345634632
 30
0.0
 10
85.14656844659531
 20
-99.12952200212735
 30
0.0
 10
85.14656844659531
 20
-100.2701931172936
 30
0.0
  0
HATCH
  5
769
330
75B
100
AcDbEntity
  8
LIVELLO_1
 62
     7
100
AcDbHatch
 10
0.0
 20
0.0
 30
0.0
210
0.0
220
0.0
230
1.0
  2
SOLID
 70
     1
 71
     0
 91
        2
 92
        1
 93
        1
 72
     4
 94
        3
 73
     0
 74
     1
 95
       17
 96
       13
 40
0.0
 40
0.0
 40
0.0
 40
0.0
 40
1.0
 40
1.0
 40
1.0
 40
2.0
 40
2.0
 40
2.0
 40
3.0
 40
3.0
 40
3.0
 40
4.0
 40
4.0
 40
4.0
 40
4.0
 10
89.97590329781853
 20
-100.2701931172936
 10
89.97590329781853
 20
-101.7291910552969
 10
88.77563203075748
 20
-102.8922552911172
 10
87.2646131509269
 20
-102.8922552911172
 10
85.7463595705773
 20
-102.8922552911172
 10
84.54643281306478
 20
-101.7291910552969
 10
84.54643281306478
 20
-100.2701931172936
 10
84.54643281306478
 20
-98.80361596922272
 10
85.7463595705773
 20
-97.66294485405649
 10
87.2646131509269
 20
-97.66294485405649
 10
88.77563203075748
 20
-97.66294485405649
 10
89.97590329781853
 20
-98.81119517929027
 10
89.97590329781853
 20
-100.2701931172936
 97
        0
 92
        1
 93
        1
 72
     4
 94
        3
 73
     0
 74
     1
 95
       17
 96
       13
 40
0.0
 40
0.0
 40
0.0
 40
0.0
 40
1.0
 40
1.0
 40
1.0
 40
2.0
 40
2.0
 40
2.0
 40
3.0
 40
3.0
 40
3.0
 40
4.0
 40
4.0
 40
4.0
 40
4.0
 10
85.14656844659531
 20
-100.2701931172936
 10
85.14656844659531
 20
-101.4108642324598
 10
86.10912812517411
 20
-102.3217474787598
 10
87.2646131509269
 20
-102.3217474787598
 10
88.4200981766797
 20
-102.3217474787598
 10
89.36818845422046
 20
-101.4108642324598
 10
89.36818845422046
 20
-100.2701931172936
 10
89.36818845422046
 20
-99.12952200212735
 10
88.4200981766797
 20
-98.22587345634632
 10
87.2646131509269
 20
-98.22587345634632
 10
86.10912812517411
 20
-98.22587345634632
 10
85.14656844659531
 20
-99.12952200212735
 10
85.14656844659531
 20
-100.2701931172936
 97
        0
 75
     2
 76
     1
 98
        0
  0
SPLINE
  5
76A
330
75B
100
AcDbEntity
  8
LIVELLO_1
100
AcDbSpline
210
0.0
220
0.0
230
1.0
 70
    11
 71
     3
 72
    44
 73
    40
 74
     0
 42
0.0000000001
 43
0.0000000001
 12
1.0
 22
0.0
 32
0.0
 13
1.0
 23
0.0
 33
0.0
 40
0.0
 40
0.0
 40
0.0
 40
0.0
 40
1.0
 40
1.0
 40
1.0
 40
2.0
 40
2.0
 40
2.0
 40
3.0
 40
3.0
 40
3.0
 40
4.0
 40
4.0
 40
4.0
 40
5.0
 40
5.0
 40
5.0
 40
6.0
 40
6.0
 40
6.0
 40
7.0
 40
7.0
 40
7.0
 40
8.0
 40
8.0
 40
8.0
 40
9.0
 40
9.0
 40
9.0
 40
10.0
 40
10.0
 40
10.0
 40
11.0
 40
11.0
 40
11.0
 40
12.0
 40
12.0
 40
12.0
 40
13.0
 40
13.0
 40
13.0
 40
13.0
 10
93.89504392183875
 20
-98.92970646398285
 30
0.0
 10
93.89504392183875
 20
-99.42580021385884
 30
0.0
 10
93.52435164762586
 20
-100.0259358473893
 30
0.0
 10
92.97658146547114
 20
-100.6109130607848
 30
0.0
 10
92.97658146547114
 20
-100.6109130607848
 30
0.0
 10
91.38391382264014
 20
-102.2996988676542
 30
0.0
 10
91.38391382264014
 20
-102.2996988676542
 30
0.0
 10
91.38391382264014
 20
-102.2996988676542
 30
0.0
 10
94.19132213357022
 20
-102.2996988676542
 30
0.0
 10
94.19132213357022
 20
-102.2996988676542
 30
0.0
 10
94.19132213357022
 20
-102.2996988676542
 30
0.0
 10
94.19132213357022
 20
-102.8626274699441
 30
0.0
 10
94.19132213357022
 20
-102.8626274699441
 30
0.0
 10
94.19132213357022
 20
-102.8626274699441
 30
0.0
 10
90.62840438272485
 20
-102.8626274699441
 30
0.0
 10
90.62840438272485
 20
-102.8626274699441
 30
0.0
 10
90.62840438272485
 20
-102.8626274699441
 30
0.0
 10
90.62840438272485
 20
-102.3737684205871
 30
0.0
 10
90.62840438272485
 20
-102.3737684205871
 30
0.0
 10
90.62840438272485
 20
-102.3737684205871
 30
0.0
 10
92.56902666956609
 20
-100.2629584167745
 30
0.0
 10
92.56902666956609
 20
-100.2629584167745
 30
0.0
 10
93.00620928664428
 20
-99.82577579969634
 30
0.0
 10
93.28009437772165
 20
-99.34449596040693
 30
0.0
 10
93.28009437772165
 20
-99.01101071743476
 30
0.0
 10
93.28009437772165
 20
-98.50733775749123
 30
0.0
 10
92.89493270247071
 20
-98.20348033569219
 30
0.0
 10
92.24312063666144
 20
-98.20348033569219
 30
0.0
 10
91.76907549789107
 20
-98.20348033569219
 30
0.0
 10
91.24300941729342
 20
-98.44808211514493
 30
0.0
 10
90.82821992086934
 20
-98.84805770098244
 30
0.0
 10
90.82821992086934
 20
-98.84805770098244
 30
0.0
 10
90.56914874037855
 20
-98.37401256221206
 30
0.0
 10
90.56914874037855
 20
-98.37401256221206
 30
0.0
 10
91.07282170032208
 20
-97.92236054409581
 30
0.0
 10
91.70258515502574
 20
-97.65571015353747
 30
0.0
 10
92.31719018959431
 20
-97.65571015353747
 30
0.0
 10
93.27285967720262
 20
-97.65571015353747
 30
0.0
 10
93.89504392183875
 20
-98.15180390341344
 30
0.0
 10
93.89504392183875
 20
-98.92970646398285
 30
0.0
  0
HATCH
  5
76B
330
75B
100
AcDbEntity
  8
LIVELLO_1
 62
     7
100
AcDbHatch
 10
0.0
 20
0.0
 30
0.0
210
0.0
220
0.0
230
1.0
  2
SOLID
 70
     1
 71
     0
 91
        1
 92
        1
 93
        1
 72
     4
 94
        3
 73
     0
 74
     1
 95
       44
 96
       40
 40
0.0
 40
0.0
 40
0.0
 40
0.0
 40
1.0
 40
1.0
 40
1.0
 40
2.0
 40
2.0
 40
2.0
 40
3.0
 40
3.0
 40
3.0
 40
4.0
 40
4.0
 40
4.0
 40
5.0
 40
5.0
 40
5.0
 40
6.0
 40
6.0
 40
6.0
 40
7.0
 40
7.0
 40
7.0
 40
8.0
 40
8.0
 40
8.0
 40
9.0
 40
9.0
 40
9.0
 40
10.0
 40
10.0
 40
10.0
 40
11.0
 40
11.0
 40
11.0
 40
12.0
 40
12.0
 40
12.0
 40
13.0
 40
13.0
 40
13.0
 40
13.0
 10
93.89504392183875
 20
-98.92970646398285
 10
93.89504392183875
 20
-99.42580021385884
 10
93.52435164762586
 20
-100.0259358473893
 10
92.97658146547114
 20
-100.6109130607848
 10
92.97658146547114
 20
-100.6109130607848
 10
91.38391382264014
 20
-102.2996988676542
 10
91.38391382264014
 20
-102.2996988676542
 10
91.38391382264014
 20
-102.2996988676542
 10
94.19132213357022
 20
-102.2996988676542
 10
94.19132213357022
 20
-102.2996988676542
 10
94.19132213357022
 20
-102.2996988676542
 10
94.19132213357022
 20
-102.8626274699441
 10
94.19132213357022
 20
-102.8626274699441
 10
94.19132213357022
 20
-102.8626274699441
 10
90.62840438272485
 20
-102.8626274699441
 10
90.62840438272485
 20
-102.8626274699441
 10
90.62840438272485
 20
-102.8626274699441
 10
90.62840438272485
 20
-102.3737684205871
 10
90.62840438272485
 20
-102.3737684205871
 10
90.62840438272485
 20
-102.3737684205871
 10
92.56902666956609
 20
-100.2629584167745
 10
92.56902666956609
 20
-100.2629584167745
 10
93.00620928664428
 20
-99.82577579969634
 10
93.28009437772165
 20
-99.34449596040693
 10
93.28009437772165
 20
-99.01101071743476
 10
93.28009437772165
 20
-98.50733775749123
 10
92.89493270247071
 20
-98.20348033569219
 10
92.24312063666144
 20
-98.20348033569219
 10
91.76907549789107
 20
-98.20348033569219
 10
91.24300941729342
 20
-98.44808211514493
 10
90.82821992086934
 20
-98.84805770098244
 10
90.82821992086934
 20
-98.84805770098244
 10
90.56914874037855
 20
-98.37401256221206
 10
90.56914874037855
 20
-98.37401256221206
 10
91.07282170032208
 20
-97.92236054409581
 10
91.70258515502574
 20
-97.65571015353747
 10
92.31719018959431
 20
-97.65571015353747
 10
93.27285967720262
 20
-97.65571015353747
 10
93.89504392183875
 20
-98.15180390341344
 10
93.89504392183875
 20
-98.92970646398285
 97
        0
 75
     2
 76
     1
 98
        0
  0
SPLINE
  5
76C
330
75B
100
AcDbEntity
  8
LIVELLO_1
100
AcDbSpline
210
0.0
220
0.0
230
1.0
 70
    11
 71
     3
 72
    44
 73
    40
 74
     0
 42
0.0000000001
 43
0.0000000001
 12
1.0
 22
0.0
 32
0.0
 13
1.0
 23
0.0
 33
0.0
 40
0.0
 40
0.0
 40
0.0
 40
0.0
 40
1.0
 40
1.0
 40
1.0
 40
2.0
 40
2.0
 40
2.0
 40
3.0
 40
3.0
 40
3.0
 40
4.0
 40
4.0
 40
4.0
 40
5.0
 40
5.0
 40
5.0
 40
6.0
 40
6.0
 40
6.0
 40
7.0
 40
7.0
 40
7.0
 40
8.0
 40
8.0
 40
8.0
 40
9.0
 40
9.0
 40
9.0
 40
10.0
 40
10.0
 40
10.0
 40
11.0
 40
11.0
 40
11.0
 40
12.0
 40
12.0
 40
12.0
 40
13.0
 40
13.0
 40
13.0
 40
13.0
 10
98.19934622110989
 20
-98.92970646398285
 30
0.0
 10
98.19934622110989
 20
-99.42580021385884
 30
0.0
 10
97.828653946897
 20
-100.0259358473893
 30
0.0
 10
97.28088376474228
 20
-100.6109130607848
 30
0.0
 10
97.28088376474228
 20
-100.6109130607848
 30
0.0
 10
95.68821612191128
 20
-102.2996988676542
 30
0.0
 10
95.68821612191128
 20
-102.2996988676542
 30
0.0
 10
95.68821612191128
 20
-102.2996988676542
 30
0.0
 10
98.49562443284138
 20
-102.2996988676542
 30
0.0
 10
98.49562443284138
 20
-102.2996988676542
 30
0.0
 10
98.49562443284138
 20
-102.2996988676542
 30
0.0
 10
98.49562443284138
 20
-102.8626274699441
 30
0.0
 10
98.49562443284138
 20
-102.8626274699441
 30
0.0
 10
98.49562443284138
 20
-102.8626274699441
 30
0.0
 10
94.932706681996
 20
-102.8626274699441
 30
0.0
 10
94.932706681996
 20
-102.8626274699441
 30
0.0
 10
94.932706681996
 20
-102.8626274699441
 30
0.0
 10
94.932706681996
 20
-102.3737684205871
 30
0.0
 10
94.932706681996
 20
-102.3737684205871
 30
0.0
 10
94.932706681996
 20
-102.3737684205871
 30
0.0
 10
96.87332896883723
 20
-100.2629584167745
 30
0.0
 10
96.87332896883723
 20
-100.2629584167745
 30
0.0
 10
97.31051158591544
 20
-99.82577579969634
 30
0.0
 10
97.5843966769928
 20
-99.34449596040693
 30
0.0
 10
97.5843966769928
 20
-99.01101071743476
 30
0.0
 10
97.5843966769928
 20
-98.50733775749123
 30
0.0
 10
97.19923500174187
 20
-98.20348033569219
 30
0.0
 10
96.54742293593259
 20
-98.20348033569219
 30
0.0
 10
96.07337779716221
 20
-98.20348033569219
 30
0.0
 10
95.54731171656456
 20
-98.44808211514493
 30
0.0
 10
95.13252222014049
 20
-98.84805770098244
 30
0.0
 10
95.13252222014049
 20
-98.84805770098244
 30
0.0
 10
94.8734510396497
 20
-98.37401256221206
 30
0.0
 10
94.8734510396497
 20
-98.37401256221206
 30
0.0
 10
95.37712399959322
 20
-97.92236054409581
 30
0.0
 10
96.00688745429689
 20
-97.65571015353747
 30
0.0
 10
96.62149248886547
 20
-97.65571015353747
 30
0.0
 10
97.57716197647377
 20
-97.65571015353747
 30
0.0
 10
98.19934622110989
 20
-98.15180390341344
 30
0.0
 10
98.19934622110989
 20
-98.92970646398285
 30
0.0
  0
HATCH
  5
76D
330
75B
100
AcDbEntity
  8
LIVELLO_1
 62
     7
100
AcDbHatch
 10
0.0
 20
0.0
 30
0.0
210
0.0
220
0.0
230
1.0
  2
SOLID
 70
     1
 71
     0
 91
        1
 92
        1
 93
        1
 72
     4
 94
        3
 73
     0
 74
     1
 95
       44
 96
       40
 40
0.0
 40
0.0
 40
0.0
 40
0.0
 40
1.0
 40
1.0
 40
1.0
 40
2.0
 40
2.0
 40
2.0
 40
3.0
 40
3.0
 40
3.0
 40
4.0
 40
4.0
 40
4.0
 40
5.0
 40
5.0
 40
5.0
 40
6.0
 40
6.0
 40
6.0
 40
7.0
 40
7.0
 40
7.0
 40
8.0
 40
8.0
 40
8.0
 40
9.0
 40
9.0
 40
9.0
 40
10.0
 40
10.0
 40
10.0
 40
11.0
 40
11.0
 40
11.0
 40
12.0
 40
12.0
 40
12.0
 40
13.0
 40
13.0
 40
13.0
 40
13.0
 10
98.19934622110989
 20
-98.92970646398285
 10
98.19934622110989
 20
-99.42580021385884
 10
97.828653946897
 20
-100.0259358473893
 10
97.28088376474228
 20
-100.6109130607848
 10
97.28088376474228
 20
-100.6109130607848
 10
95.68821612191128
 20
-102.2996988676542
 10
95.68821612191128
 20
-102.2996988676542
 10
95.68821612191128
 20
-102.2996988676542
 10
98.49562443284138
 20
-102.2996988676542
 10
98.49562443284138
 20
-102.2996988676542
 10
98.49562443284138
 20
-102.2996988676542
 10
98.49562443284138
 20
-102.8626274699441
 10
98.49562443284138
 20
-102.8626274699441
 10
98.49562443284138
 20
-102.8626274699441
 10
94.932706681996
 20
-102.8626274699441
 10
94.932706681996
 20
-102.8626274699441
 10
94.932706681996
 20
-102.8626274699441
 10
94.932706681996
 20
-102.3737684205871
 10
94.932706681996
 20
-102.3737684205871
 10
94.932706681996
 20
-102.3737684205871
 10
96.87332896883723
 20
-100.2629584167745
 10
96.87332896883723
 20
-100.2629584167745
 10
97.31051158591544
 20
-99.82577579969634
 10
97.5843966769928
 20
-99.34449596040693
 10
97.5843966769928
 20
-99.01101071743476
 10
97.5843966769928
 20
-98.50733775749123
 10
97.19923500174187
 20
-98.20348033569219
 10
96.54742293593259
 20
-98.20348033569219
 10
96.07337779716221
 20
-98.20348033569219
 10
95.54731171656456
 20
-98.44808211514493
 10
95.13252222014049
 20
-98.84805770098244
 10
95.13252222014049
 20
-98.84805770098244
 10
94.8734510396497
 20
-98.37401256221206
 10
94.8734510396497
 20
-98.37401256221206
 10
95.37712399959322
 20
-97.92236054409581
 10
96.00688745429689
 20
-97.65571015353747
 10
96.62149248886547
 20
-97.65571015353747
 10
97.57716197647377
 20
-97.65571015353747
 10
98.19934622110989
 20
-98.15180390341344
 10
98.19934622110989
 20
-98.92970646398285
 97
        0
 75
     2
 76
     1
 98
        0
  0
SPLINE
  5
76E
330
75B
100
AcDbEntity
  8
LIVELLO_1
100
AcDbSpline
210
0.0
220
0.0
230
1.0
 70
    11
 71
     3
 72
    20
 73
    16
 74
     0
 42
0.0000000001
 43
0.0000000001
 12
1.0
 22
0.0
 32
0.0
 13
1.0
 23
0.0
 33
0.0
 40
0.0
 40
0.0
 40
0.0
 40
0.0
 40
1.0
 40
1.0
 40
1.0
 40
2.0
 40
2.0
 40
2.0
 40
3.0
 40
3.0
 40
3.0
 40
4.0
 40
4.0
 40
4.0
 40
5.0
 40
5.0
 40
5.0
 40
5.0
 10
101.7629529910523
 20
-97.67775876464306
 30
0.0
 10
103.2739718708829
 20
-97.67775876464306
 30
0.0
 10
104.4294568966357
 20
-98.79603675915516
 30
0.0
 10
104.4294568966357
 20
-100.2701931172936
 30
0.0
 10
104.4294568966357
 20
-101.744349475432
 30
0.0
 10
103.2663926608154
 20
-102.8626274699441
 30
0.0
 10
101.7405598703982
 20
-102.8626274699441
 30
0.0
 10
101.7405598703982
 20
-102.8626274699441
 30
0.0
 10
99.6666123882778
 20
-102.8626274699441
 30
0.0
 10
99.6666123882778
 20
-102.8626274699441
 30
0.0
 10
99.6666123882778
 20
-102.8626274699441
 30
0.0
 10
99.6666123882778
 20
-97.67775876464306
 30
0.0
 10
99.6666123882778
 20
-97.67775876464306
 30
0.0
 10
99.6666123882778
 20
-97.67775876464306
 30
0.0
 10
101.7629529910523
 20
-97.67775876464306
 30
0.0
 10
101.7629529910523
 20
-97.67775876464306
 30
0.0
  0
SPLINE
  5
76F
330
75B
100
AcDbEntity
  8
LIVELLO_1
100
AcDbSpline
210
0.0
220
0.0
230
1.0
 70
    11
 71
     3
 72
    20
 73
    16
 74
     0
 42
0.0000000001
 43
0.0000000001
 12
1.0
 22
0.0
 32
0.0
 13
1.0
 23
0.0
 33
0.0
 40
0.0
 40
0.0
 40
0.0
 40
0.0
 40
1.0
 40
1.0
 40
1.0
 40
2.0
 40
2.0
 40
2.0
 40
3.0
 40
3.0
 40
3.0
 40
4.0
 40
4.0
 40
4.0
 40
5.0
 40
5.0
 40
5.0
 40
5.0
 10
100.2591688117408
 20
-102.2996988676542
 30
0.0
 10
100.2591688117408
 20
-102.2996988676542
 30
0.0
 10
101.7701876915714
 20
-102.2996988676542
 30
0.0
 10
101.7701876915714
 20
-102.2996988676542
 30
0.0
 10
102.9256727173241
 20
-102.2996988676542
 30
0.0
 10
103.8293212631052
 20
-101.4329128435654
 30
0.0
 10
103.8293212631052
 20
-100.2774278178126
 30
0.0
 10
103.8293212631052
 20
-99.11470809154078
 30
0.0
 10
102.9108588067376
 20
-98.24826657700044
 30
0.0
 10
101.7477945709172
 20
-98.24826657700044
 30
0.0
 10
101.7477945709172
 20
-98.24826657700044
 30
0.0
 10
100.2591688117408
 20
-98.24826657700044
 30
0.0
 10
100.2591688117408
 20
-98.24826657700044
 30
0.0
 10
100.2591688117408
 20
-98.24826657700044
 30
0.0
 10
100.2591688117408
 20
-102.2996988676542
 30
0.0
 10
100.2591688117408
 20
-102.2996988676542
 30
0.0
  0
HATCH
  5
770
330
75B
100
AcDbEntity
  8
LIVELLO_1
 62
     7
100
AcDbHatch
 10
0.0
 20
0.0
 30
0.0
210
0.0
220
0.0
230
1.0
  2
SOLID
 70
     1
 71
     0
 91
        2
 92
        1
 93
        1
 72
     4
 94
        3
 73
     0
 74
     1
 95
       20
 96
       16
 40
0.0
 40
0.0
 40
0.0
 40
0.0
 40
1.0
 40
1.0
 40
1.0
 40
2.0
 40
2.0
 40
2.0
 40
3.0
 40
3.0
 40
3.0
 40
4.0
 40
4.0
 40
4.0
 40
5.0
 40
5.0
 40
5.0
 40
5.0
 10
101.7629529910523
 20
-97.67775876464306
 10
103.2739718708829
 20
-97.67775876464306
 10
104.4294568966357
 20
-98.79603675915516
 10
104.4294568966357
 20
-100.2701931172936
 10
104.4294568966357
 20
-101.744349475432
 10
103.2663926608154
 20
-102.8626274699441
 10
101.7405598703982
 20
-102.8626274699441
 10
101.7405598703982
 20
-102.8626274699441
 10
99.6666123882778
 20
-102.8626274699441
 10
99.6666123882778
 20
-102.8626274699441
 10
99.6666123882778
 20
-102.8626274699441
 10
99.6666123882778
 20
-97.67775876464306
 10
99.6666123882778
 20
-97.67775876464306
 10
99.6666123882778
 20
-97.67775876464306
 10
101.7629529910523
 20
-97.67775876464306
 10
101.7629529910523
 20
-97.67775876464306
 97
        0
 92
        1
 93
        1
 72
     4
 94
        3
 73
     0
 74
     1
 95
       20
 96
       16
 40
0.0
 40
0.0
 40
0.0
 40
0.0
 40
1.0
 40
1.0
 40
1.0
 40
2.0
 40
2.0
 40
2.0
 40
3.0
 40
3.0
 40
3.0
 40
4.0
 40
4.0
 40
4.0
 40
5.0
 40
5.0
 40
5.0
 40
5.0
 10
100.2591688117408
 20
-102.2996988676542
 10
100.2591688117408
 20
-102.2996988676542
 10
101.7701876915714
 20
-102.2996988676542
 10
101.7701876915714
 20
-102.2996988676542
 10
102.9256727173241
 20
-102.2996988676542
 10
103.8293212631052
 20
-101.4329128435654
 10
103.8293212631052
 20
-100.2774278178126
 10
103.8293212631052
 20
-99.11470809154078
 10
102.9108588067376
 20
-98.24826657700044
 10
101.7477945709172
 20
-98.24826657700044
 10
101.7477945709172
 20
-98.24826657700044
 10
100.2591688117408
 20
-98.24826657700044
 10
100.2591688117408
 20
-98.24826657700044
 10
100.2591688117408
 20
-98.24826657700044
 10
100.2591688117408
 20
-102.2996988676542
 10
100.2591688117408
 20
-102.2996988676542
 97
        0
 75
     2
 76
     1
 98
        0
  0
SPLINE
  5
771
330
75B
100
AcDbEntity
  8
LIVELLO_1
100
AcDbSpline
210
0.0
220
0.0
230
1.0
 70
    11
 71
     3
 72
    17
 73
    13
 74
     0
 42
0.0000000001
 43
0.0000000001
 12
1.0
 22
0.0
 32
0.0
 13
1.0
 23
0.0
 33
0.0
 40
0.0
 40
0.0
 40
0.0
 40
0.0
 40
1.0
 40
1.0
 40
1.0
 40
2.0
 40
2.0
 40
2.0
 40
3.0
 40
3.0
 40
3.0
 40
4.0
 40
4.0
 40
4.0
 40
4.0
 10
109.4000406627542
 20
-100.2701931172936
 30
0.0
 10
109.4000406627542
 20
-101.9441650135765
 30
0.0
 10
108.6372965223198
 20
-102.8774413805306
 30
0.0
 10
107.2596028377684
 20
-102.8774413805306
 30
0.0
 10
105.881909153217
 20
-102.8774413805306
 30
0.0
 10
105.1191650127827
 20
-101.9441650135765
 30
0.0
 10
105.1191650127827
 20
-100.2701931172936
 30
0.0
 10
105.1191650127827
 20
-98.59622122101067
 30
0.0
 10
105.881909153217
 20
-97.66294485405649
 30
0.0
 10
107.2596028377684
 20
-97.66294485405649
 30
0.0
 10
108.6372965223198
 20
-97.66294485405649
 30
0.0
 10
109.4000406627542
 20
-98.59622122101067
 30
0.0
 10
109.4000406627542
 20
-100.2701931172936
 30
0.0
  0
SPLINE
  5
772
330
75B
100
AcDbEntity
  8
LIVELLO_1
100
AcDbSpline
210
0.0
220
0.0
230
1.0
 70
    11
 71
     3
 72
    17
 73
    13
 74
     0
 42
0.0000000001
 43
0.0000000001
 12
1.0
 22
0.0
 32
0.0
 13
1.0
 23
0.0
 33
0.0
 40
0.0
 40
0.0
 40
0.0
 40
0.0
 40
1.0
 40
1.0
 40
1.0
 40
2.0
 40
2.0
 40
2.0
 40
3.0
 40
3.0
 40
3.0
 40
4.0
 40
4.0
 40
4.0
 40
4.0
 10
105.7189561367647
 20
-100.2701931172936
 30
0.0
 10
105.7189561367647
 20
-101.6699354129506
 30
0.0
 10
106.2522569178814
 20
-102.3737684205871
 30
0.0
 10
107.2596028377684
 20
-102.3737684205871
 30
0.0
 10
108.2669487576555
 20
-102.3737684205871
 30
0.0
 10
108.8002495387722
 20
-101.6699354129506
 30
0.0
 10
108.8002495387722
 20
-100.2701931172936
 30
0.0
 10
108.8002495387722
 20
-98.862871611569
 30
0.0
 10
108.2669487576555
 20
-98.16661781400002
 30
0.0
 10
107.2596028377684
 20
-98.16661781400002
 30
0.0
 10
106.2522569178814
 20
-98.16661781400002
 30
0.0
 10
105.7189561367647
 20
-98.862871611569
 30
0.0
 10
105.7189561367647
 20
-100.2701931172936
 30
0.0
  0
HATCH
  5
773
330
75B
100
AcDbEntity
  8
LIVELLO_1
 62
     7
100
AcDbHatch
 10
0.0
 20
0.0
 30
0.0
210
0.0
220
0.0
230
1.0
  2
SOLID
 70
     1
 71
     0
 91
        2
 92
        1
 93
        1
 72
     4
 94
        3
 73
     0
 74
     1
 95
       17
 96
       13
 40
0.0
 40
0.0
 40
0.0
 40
0.0
 40
1.0
 40
1.0
 40
1.0
 40
2.0
 40
2.0
 40
2.0
 40
3.0
 40
3.0
 40
3.0
 40
4.0
 40
4.0
 40
4.0
 40
4.0
 10
109.4000406627542
 20
-100.2701931172936
 10
109.4000406627542
 20
-101.9441650135765
 10
108.6372965223198
 20
-102.8774413805306
 10
107.2596028377684
 20
-102.8774413805306
 10
105.881909153217
 20
-102.8774413805306
 10
105.1191650127827
 20
-101.9441650135765
 10
105.1191650127827
 20
-100.2701931172936
 10
105.1191650127827
 20
-98.59622122101067
 10
105.881909153217
 20
-97.66294485405649
 10
107.2596028377684
 20
-97.66294485405649
 10
108.6372965223198
 20
-97.66294485405649
 10
109.4000406627542
 20
-98.59622122101067
 10
109.4000406627542
 20
-100.2701931172936
 97
        0
 92
        1
 93
        1
 72
     4
 94
        3
 73
     0
 74
     1
 95
       17
 96
       13
 40
0.0
 40
0.0
 40
0.0
 40
0.0
 40
1.0
 40
1.0
 40
1.0
 40
2.0
 40
2.0
 40
2.0
 40
3.0
 40
3.0
 40
3.0
 40
4.0
 40
4.0
 40
4.0
 40
4.0
 10
105.7189561367647
 20
-100.2701931172936
 10
105.7189561367647
 20
-101.6699354129506
 10
106.2522569178814
 20
-102.3737684205871
 10
107.2596028377684
 20
-102.3737684205871
 10
108.2669487576555
 20
-102.3737684205871
 10
108.8002495387722
 20
-101.6699354129506
 10
108.8002495387722
 20
-100.2701931172936
 10
108.8002495387722
 20
-98.862871611569
 10
108.2669487576555
 20
-98.16661781400002
 10
107.2596028377684
 20
-98.16661781400002
 10
106.2522569178814
 20
-98.16661781400002
 10
105.7189561367647
 20
-98.862871611569
 10
105.7189561367647
 20
-100.2701931172936
 97
        0
 75
     2
 76
     1
 98
        0
  0
POLYLINE
  5
774
330
75B
100
AcDbEntity
  8
LIVELLO_1
100
AcDb2dPolyline
 66
     1
 10
0.0
 20
0.0
 30
0.0
  0
VERTEX
  5
775
330
774
100
AcDbEntity
  8
LIVELLO_1
100
AcDbVertex
100
AcDb2dVertex
 10
110.9716932231251
 20
-102.8626274699441
 30
0.0
  0
VERTEX
  5
776
330
774
100
AcDbEntity
  8
LIVELLO_1
100
AcDbVertex
100
AcDb2dVertex
 10
110.9716932231251
 20
-98.24068736693289
 30
0.0
  0
VERTEX
  5
777
330
774
100
AcDbEntity
  8
LIVELLO_1
100
AcDbVertex
100
AcDb2dVertex
 10
109.9195610619298
 20
-98.24068736693289
 30
0.0
  0
VERTEX
  5
778
330
774
100
AcDbEntity
  8
LIVELLO_1
100
AcDbVertex
100
AcDb2dVertex
 10
109.9195610619298
 20
-97.67775876464306
 30
0.0
  0
VERTEX
  5
779
330
774
100
AcDbEntity
  8
LIVELLO_1
100
AcDbVertex
100
AcDb2dVertex
 10
111.5566704365206
 20
-97.67775876464306
 30
0.0
  0
VERTEX
  5
77A
330
774
100
AcDbEntity
  8
LIVELLO_1
100
AcDbVertex
100
AcDb2dVertex
 10
111.5566704365206
 20
-102.8626274699441
 30
0.0
  0
VERTEX
  5
77B
330
774
100
AcDbEntity
  8
LIVELLO_1
100
AcDbVertex
100
AcDb2dVertex
 10
110.9716932231251
 20
-102.8626274699441
 30
0.0
  0
SEQEND
  5
77C
330
774
100
AcDbEntity
  8
LIVELLO_1
  0
HATCH
  5
77D
330
75B
100
AcDbEntity
  8
LIVELLO_1
 62
     7
100
AcDbHatch
 10
0.0
 20
0.0
 30
0.0
210
0.0
220
0.0
230
1.0
  2
SOLID
 70
     1
 71
     0
 91
        1
 92
        1
 93
        6
 72
     1
 10
110.9716932231251
 20
-102.8626274699441
 11
110.9716932231251
 21
-98.24068736693289
 72
     1
 10
110.9716932231251
 20
-98.24068736693289
 11
109.9195610619298
 21
-98.24068736693289
 72
     1
 10
109.9195610619298
 20
-98.24068736693289
 11
109.9195610619298
 21
-97.67775876464306
 72
     1
 10
109.9195610619298
 20
-97.67775876464306
 11
111.5566704365206
 21
-97.67775876464306
 72
     1
 10
111.5566704365206
 20
-97.67775876464306
 11
111.5566704365206
 21
-102.8626274699441
 72
     1
 10
111.5566704365206
 20
-102.8626274699441
 11
110.9716932231251
 21
-102.8626274699441
 97
        0
 75
     2
 76
     1
 98
        0
  0
POLYLINE
  5
77E
330
75B
100
AcDbEntity
  8
LIVELLO_1
100
AcDb2dPolyline
 66
     1
 10
0.0
 20
0.0
 30
0.0
  0
VERTEX
  5
77F
330
77E
100
AcDbEntity
  8
LIVELLO_1
100
AcDbVertex
100
AcDb2dVertex
 10
114.927351859289
 20
-100.4035183125727
 30
0.0
  0
VERTEX
  5
780
330
77E
100
AcDbEntity
  8
LIVELLO_1
100
AcDbVertex
100
AcDb2dVertex
 10
113.9200059394019
 20
-101.5073269060468
 30
0.0
  0
VERTEX
  5
781
330
77E
100
AcDbEntity
  8
LIVELLO_1
100
AcDbVertex
100
AcDb2dVertex
 10
113.9200059394019
 20
-102.8626274699441
 30
0.0
  0
VERTEX
  5
782
330
77E
100
AcDbEntity
  8
LIVELLO_1
100
AcDbVertex
100
AcDb2dVertex
 10
113.327449515939
 20
-102.8626274699441
 30
0.0
  0
VERTEX
  5
783
330
77E
100
AcDbEntity
  8
LIVELLO_1
100
AcDbVertex
100
AcDb2dVertex
 10
113.327449515939
 20
-97.67775876464306
 30
0.0
  0
VERTEX
  5
784
330
77E
100
AcDbEntity
  8
LIVELLO_1
100
AcDbVertex
100
AcDb2dVertex
 10
113.9200059394019
 20
-97.67775876464306
 30
0.0
  0
VERTEX
  5
785
330
77E
100
AcDbEntity
  8
LIVELLO_1
100
AcDbVertex
100
AcDb2dVertex
 10
113.9200059394019
 20
-100.6625894930635
 30
0.0
  0
VERTEX
  5
786
330
77E
100
AcDbEntity
  8
LIVELLO_1
100
AcDbVertex
100
AcDb2dVertex
 10
116.7050211296779
 20
-97.67775876464306
 30
0.0
  0
VERTEX
  5
787
330
77E
100
AcDbEntity
  8
LIVELLO_1
100
AcDbVertex
100
AcDb2dVertex
 10
117.4085096277659
 20
-97.67775876464306
 30
0.0
  0
VERTEX
  5
788
330
77E
100
AcDbEntity
  8
LIVELLO_1
100
AcDbVertex
100
AcDb2dVertex
 10
115.3569552662997
 20
-99.92947317380236
 30
0.0
  0
VERTEX
  5
789
330
77E
100
AcDbEntity
  8
LIVELLO_1
100
AcDbVertex
100
AcDb2dVertex
 10
117.5642279436992
 20
-102.8626274699441
 30
0.0
  0
VERTEX
  5
78A
330
77E
100
AcDbEntity
  8
LIVELLO_1
100
AcDbVertex
100
AcDb2dVertex
 10
116.8383463249571
 20
-102.8626274699441
 30
0.0
  0
VERTEX
  5
78B
330
77E
100
AcDbEntity
  8
LIVELLO_1
100
AcDbVertex
100
AcDb2dVertex
 10
114.927351859289
 20
-100.4035183125727
 30
0.0
  0
SEQEND
  5
78C
330
77E
100
AcDbEntity
  8
LIVELLO_1
  0
HATCH
  5
78D
330
75B
100
AcDbEntity
  8
LIVELLO_1
 62
     7
100
AcDbHatch
 10
0.0
 20
0.0
 30
0.0
210
0.0
220
0.0
230
1.0
  2
SOLID
 70
     1
 71
     0
 91
        1
 92
        1
 93
       12
 72
     1
 10
114.927351859289
 20
-100.4035183125727
 11
113.9200059394019
 21
-101.5073269060468
 72
     1
 10
113.9200059394019
 20
-101.5073269060468
 11
113.9200059394019
 21
-102.8626274699441
 72
     1
 10
113.9200059394019
 20
-102.8626274699441
 11
113.327449515939
 21
-102.8626274699441
 72
     1
 10
113.327449515939
 20
-102.8626274699441
 11
113.327449515939
 21
-97.67775876464306
 72
     1
 10
113.327449515939
 20
-97.67775876464306
 11
113.9200059394019
 21
-97.67775876464306
 72
     1
 10
113.9200059394019
 20
-97.67775876464306
 11
113.9200059394019
 21
-100.6625894930635
 72
     1
 10
113.9200059394019
 20
-100.6625894930635
 11
116.7050211296779
 21
-97.67775876464306
 72
     1
 10
116.7050211296779
 20
-97.67775876464306
 11
117.4085096277659
 21
-97.67775876464306
 72
     1
 10
117.4085096277659
 20
-97.67775876464306
 11
115.3569552662997
 21
-99.92947317380236
 72
     1
 10
115.3569552662997
 20
-99.92947317380236
 11
117.5642279436992
 21
-102.8626274699441
 72
     1
 10
117.5642279436992
 20
-102.8626274699441
 11
116.8383463249571
 21
-102.8626274699441
 72
     1
 10
116.8383463249571
 20
-102.8626274699441
 11
114.927351859289
 21
-100.4035183125727
 97
        0
 75
     2
 76
     1
 98
        0
  0
POLYLINE
  5
78E
330
75B
100
AcDbEntity
  8
LIVELLO_1
100
AcDb2dPolyline
 66
     1
 10
0.0
 20
0.0
 30
0.0
  0
VERTEX
  5
78F
330
78E
100
AcDbEntity
  8
LIVELLO_1
100
AcDbVertex
100
AcDb2dVertex
 10
122.2092501864616
 20
-102.8626274699441
 30
0.0
  0
VERTEX
  5
790
330
78E
100
AcDbEntity
  8
LIVELLO_1
100
AcDbVertex
100
AcDb2dVertex
 10
119.098328963281
 20
-98.69991859511669
 30
0.0
  0
VERTEX
  5
791
330
78E
100
AcDbEntity
  8
LIVELLO_1
100
AcDbVertex
100
AcDb2dVertex
 10
119.098328963281
 20
-102.8626274699441
 30
0.0
  0
VERTEX
  5
792
330
78E
100
AcDbEntity
  8
LIVELLO_1
100
AcDbVertex
100
AcDb2dVertex
 10
118.505772539818
 20
-102.8626274699441
 30
0.0
  0
VERTEX
  5
793
330
78E
100
AcDbEntity
  8
LIVELLO_1
100
AcDbVertex
100
AcDb2dVertex
 10
118.505772539818
 20
-97.67775876464306
 30
0.0
  0
VERTEX
  5
794
330
78E
100
AcDbEntity
  8
LIVELLO_1
100
AcDbVertex
100
AcDb2dVertex
 10
119.1207220839351
 20
-97.67775876464306
 30
0.0
  0
VERTEX
  5
795
330
78E
100
AcDbEntity
  8
LIVELLO_1
100
AcDbVertex
100
AcDb2dVertex
 10
122.2316433071157
 20
-101.8477023399895
 30
0.0
  0
VERTEX
  5
796
330
78E
100
AcDbEntity
  8
LIVELLO_1
100
AcDbVertex
100
AcDb2dVertex
 10
122.2316433071157
 20
-97.67775876464306
 30
0.0
  0
VERTEX
  5
797
330
78E
100
AcDbEntity
  8
LIVELLO_1
100
AcDbVertex
100
AcDb2dVertex
 10
122.8166205205111
 20
-97.67775876464306
 30
0.0
  0
VERTEX
  5
798
330
78E
100
AcDbEntity
  8
LIVELLO_1
100
AcDbVertex
100
AcDb2dVertex
 10
122.8166205205111
 20
-102.8626274699441
 30
0.0
  0
VERTEX
  5
799
330
78E
100
AcDbEntity
  8
LIVELLO_1
100
AcDbVertex
100
AcDb2dVertex
 10
122.2092501864616
 20
-102.8626274699441
 30
0.0
  0
SEQEND
  5
79A
330
78E
100
AcDbEntity
  8
LIVELLO_1
  0
HATCH
  5
79B
330
75B
100
AcDbEntity
  8
LIVELLO_1
 62
     7
100
AcDbHatch
 10
0.0
 20
0.0
 30
0.0
210
0.0
220
0.0
230
1.0
  2
SOLID
 70
     1
 71
     0
 91
        1
 92
        1
 93
       10
 72
     1
 10
122.2092501864616
 20
-102.8626274699441
 11
119.098328963281
 21
-98.69991859511669
 72
     1
 10
119.098328963281
 20
-98.69991859511669
 11
119.098328963281
 21
-102.8626274699441
 72
     1
 10
119.098328963281
 20
-102.8626274699441
 11
118.505772539818
 21
-102.8626274699441
 72
     1
 10
118.505772539818
 20
-102.8626274699441
 11
118.505772539818
 21
-97.67775876464306
 72
     1
 10
118.505772539818
 20
-97.67775876464306
 11
119.1207220839351
 21
-97.67775876464306
 72
     1
 10
119.1207220839351
 20
-97.67775876464306
 11
122.2316433071157
 21
-101.8477023399895
 72
     1
 10
122.2316433071157
 20
-101.8477023399895
 11
122.2316433071157
 21
-97.67775876464306
 72
     1
 10
122.2316433071157
 20
-97.67775876464306
 11
122.8166205205111
 21
-97.67775876464306
 72
     1
 10
122.8166205205111
 20
-97.67775876464306
 11
122.8166205205111
 21
-102.8626274699441
 72
     1
 10
122.8166205205111
 20
-102.8626274699441
 11
122.2092501864616
 21
-102.8626274699441
 97
        0
 75
     2
 76
     1
 98
        0
  0
POLYLINE
  5
79C
330
75B
100
AcDbEntity
  8
LIVELLO_1
100
AcDb2dPolyline
 66
     1
 10
0.0
 20
0.0
 30
0.0
  0
VERTEX
  5
79D
330
79C
100
AcDbEntity
  8
LIVELLO_1
100
AcDbVertex
100
AcDb2dVertex
 10
128.3211940868433
 20
-102.8626274699441
 30
0.0
  0
VERTEX
  5
79E
330
79C
100
AcDbEntity
  8
LIVELLO_1
100
AcDbVertex
100
AcDb2dVertex
 10
127.6101263786878
 20
-102.8626274699441
 30
0.0
  0
VERTEX
  5
79F
330
79C
100
AcDbEntity
  8
LIVELLO_1
100
AcDbVertex
100
AcDb2dVertex
 10
126.0322726464433
 20
-100.6922173142367
 30
0.0
  0
VERTEX
  5
7A0
330
79C
100
AcDbEntity
  8
LIVELLO_1
100
AcDbVertex
100
AcDb2dVertex
 10
124.469577334334
 20
-102.8626274699441
 30
0.0
  0
VERTEX
  5
7A1
330
79C
100
AcDbEntity
  8
LIVELLO_1
100
AcDbVertex
100
AcDb2dVertex
 10
123.773323536765
 20
-102.8626274699441
 30
0.0
  0
VERTEX
  5
7A2
330
79C
100
AcDbEntity
  8
LIVELLO_1
100
AcDbVertex
100
AcDb2dVertex
 10
125.6767387923655
 20
-100.1961235643607
 30
0.0
  0
VERTEX
  5
7A3
330
79C
100
AcDbEntity
  8
LIVELLO_1
100
AcDbVertex
100
AcDb2dVertex
 10
123.9066487320442
 20
-97.67775876464306
 30
0.0
  0
VERTEX
  5
7A4
330
79C
100
AcDbEntity
  8
LIVELLO_1
100
AcDbVertex
100
AcDb2dVertex
 10
124.6029025296132
 20
-97.67775876464306
 30
0.0
  0
VERTEX
  5
7A5
330
79C
100
AcDbEntity
  8
LIVELLO_1
100
AcDbVertex
100
AcDb2dVertex
 10
126.0322726464433
 20
-99.67763669383059
 30
0.0
  0
VERTEX
  5
7A6
330
79C
100
AcDbEntity
  8
LIVELLO_1
100
AcDbVertex
100
AcDb2dVertex
 10
127.4768011834086
 20
-97.67775876464306
 30
0.0
  0
VERTEX
  5
7A7
330
79C
100
AcDbEntity
  8
LIVELLO_1
100
AcDbVertex
100
AcDb2dVertex
 10
128.1730549809776
 20
-97.67775876464306
 30
0.0
  0
VERTEX
  5
7A8
330
79C
100
AcDbEntity
  8
LIVELLO_1
100
AcDbVertex
100
AcDb2dVertex
 10
126.4101996211752
 20
-100.1664957431876
 30
0.0
  0
VERTEX
  5
7A9
330
79C
100
AcDbEntity
  8
LIVELLO_1
100
AcDbVertex
100
AcDb2dVertex
 10
128.3211940868433
 20
-102.8626274699441
 30
0.0
  0
SEQEND
  5
7AA
330
79C
100
AcDbEntity
  8
LIVELLO_1
  0
HATCH
  5
7AB
330
75B
100
AcDbEntity
  8
LIVELLO_1
 62
     7
100
AcDbHatch
 10
0.0
 20
0.0
 30
0.0
210
0.0
220
0.0
230
1.0
  2
SOLID
 70
     1
 71
     0
 91
        1
 92
        1
 93
       12
 72
     1
 10
128.3211940868433
 20
-102.8626274699441
 11
127.6101263786878
 21
-102.8626274699441
 72
     1
 10
127.6101263786878
 20
-102.8626274699441
 11
126.0322726464433
 21
-100.6922173142367
 72
     1
 10
126.0322726464433
 20
-100.6922173142367
 11
124.469577334334
 21
-102.8626274699441
 72
     1
 10
124.469577334334
 20
-102.8626274699441
 11
123.773323536765
 21
-102.8626274699441
 72
     1
 10
123.773323536765
 20
-102.8626274699441
 11
125.6767387923655
 21
-100.1961235643607
 72
     1
 10
125.6767387923655
 20
-100.1961235643607
 11
123.9066487320442
 21
-97.67775876464306
 72
     1
 10
123.9066487320442
 20
-97.67775876464306
 11
124.6029025296132
 21
-97.67775876464306
 72
     1
 10
124.6029025296132
 20
-97.67775876464306
 11
126.0322726464433
 21
-99.67763669383059
 72
     1
 10
126.0322726464433
 20
-99.67763669383059
 11
127.4768011834086
 21
-97.67775876464306
 72
     1
 10
127.4768011834086
 20
-97.67775876464306
 11
128.1730549809776
 21
-97.67775876464306
 72
     1
 10
128.1730549809776
 20
-97.67775876464306
 11
126.4101996211752
 21
-100.1664957431876
 72
     1
 10
126.4101996211752
 20
-100.1664957431876
 11
128.3211940868433
 21
-102.8626274699441
 97
        0
 75
     2
 76
     1
 98
        0
  0
ENDBLK
  5
75E
330
75B
100
AcDbEntity
  8
0
100
AcDbBlockEnd
  0
ENDSEC
  0
SECTION
  2
ENTITIES
  0
POLYLINE
  5
41
330
1F
100
AcDbEntity
  8
LIVELLO_1
100
AcDb2dPolyline
 66
     1
 10
0.0
 20
0.0
 30
0.0
  0
VERTEX
  5
42
330
41
100
AcDbEntity
  8
LIVELLO_1
100
AcDbVertex
100
AcDb2dVertex
 10
122.6034762221211
 20
-186.2259165736801
 30
0.0
  0
VERTEX
  5
43
330
41
100
AcDbEntity
  8
LIVELLO_1
100
AcDbVertex
100
AcDb2dVertex
 10
147.4612680958774
 20
-186.2259165736801
 30
0.0
  0
VERTEX
  5
44
330
41
100
AcDbEntity
  8
LIVELLO_1
100
AcDbVertex
100
AcDb2dVertex
 10
147.4612680958774
 20
-171.8083709791092
 30
0.0
  0
VERTEX
  5
45
330
41
100
AcDbEntity
  8
LIVELLO_1
100
AcDbVertex
100
AcDb2dVertex
 10
122.6034762221211
 20
-171.8083709791092
 30
0.0
  0
VERTEX
  5
46
330
41
100
AcDbEntity
  8
LIVELLO_1
100
AcDbVertex
100
AcDb2dVertex
 10
122.6034762221211
 20
-186.2259165736801
 30
0.0
  0
SEQEND
  5
48
330
41
100
AcDbEntity
  8
LIVELLO_1
  0
HATCH
  5
47
330
1F
100
AcDbEntity
  8
LIVELLO_1
 62
     1
100
AcDbHatch
 10
0.0
 20
0.0
 30
0.0
210
0.0
220
0.0
230
1.0
  2
SOLID
 70
     1
 71
     0
 91
        1
 92
        1
 93
        4
 72
     1
 10
122.6034762221211
 20
-186.2259165736801
 11
147.4612680958774
 21
-186.2259165736801
 72
     1
 10
147.4612680958774
 20
-186.2259165736801
 11
147.4612680958774
 21
-171.8083709791092
 72
     1
 10
147.4612680958774
 20
-171.8083709791092
 11
122.6034762221211
 21
-171.8083709791092
 72
     1
 10
122.6034762221211
 20
-171.8083709791092
 11
122.6034762221211
 21
-186.2259165736801
 97
        0
 75
     2
 76
     1
 98
        0
  0
POLYLINE
  5
49
330
1F
100
AcDbEntity
  8
LIVELLO_1
100
AcDb2dPolyline
 66
     1
 10
0.0
 20
0.0
 30
0.0
  0
VERTEX
  5
4A
330
49
100
AcDbEntity
  8
LIVELLO_1
100
AcDbVertex
100
AcDb2dVertex
 10
122.6034762221211
 20
-157.3909130771719
 30
0.0
  0
VERTEX
  5
4B
330
49
100
AcDbEntity
  8
LIVELLO_1
100
AcDbVertex
100
AcDb2dVertex
 10
122.6034762221211
 20
-171.5598500605782
 30
0.0
  0
VERTEX
  5
4C
330
49
100
AcDbEntity
  8
LIVELLO_1
100
AcDbVertex
100
AcDb2dVertex
 10
147.4612680958774
 20
-171.5598500605782
 30
0.0
  0
VERTEX
  5
4D
330
49
100
AcDbEntity
  8
LIVELLO_1
100
AcDbVertex
100
AcDb2dVertex
 10
147.4612680958774
 20
-157.3909130771719
 30
0.0
  0
VERTEX
  5
4E
330
49
100
AcDbEntity
  8
LIVELLO_1
100
AcDbVertex
100
AcDb2dVertex
 10
122.6034762221211
 20
-157.3909130771719
 30
0.0
  0
SEQEND
  5
50
330
49
100
AcDbEntity
  8
LIVELLO_1
  0
HATCH
  5
4F
330
1F
100
AcDbEntity
  8
LIVELLO_1
 62
     7
100
AcDbHatch
 10
0.0
 20
0.0
 30
0.0
210
0.0
220
0.0
230
1.0
  2
SOLID
 70
     1
 71
     0
 91
        1
 92
        1
 93
        4
 72
     1
 10
122.6034762221211
 20
-157.3909130771719
 11
122.6034762221211
 21
-171.5598500605782
 72
     1
 10
122.6034762221211
 20
-171.5598500605782
 11
147.4612680958774
 21
-171.5598500605782
 72
     1
 10
147.4612680958774
 20
-171.5598500605782
 11
147.4612680958774
 21
-157.3909130771719
 72
     1
 10
147.4612680958774
 20
-157.3909130771719
 11
122.6034762221211
 21
-157.3909130771719
 97
        0
 75
     2
 76
     1
 98
        0
  0
POLYLINE
  5
51
330
1F
100
AcDbEntity
  8
LIVELLO_1
 62
     7
100
AcDb2dPolyline
 66
     1
 10
0.0
 20
0.0
 30
0.0
  0
VERTEX
  5
52
330
51
100
AcDbEntity
  8
LIVELLO_1
 62
     7
100
AcDbVertex
100
AcDb2dVertex
 10
144.9754450621882
 20
-156.4786466285392
 30
0.0
  0
VERTEX
  5
53
330
51
100
AcDbEntity
  8
LIVELLO_1
 62
     7
100
AcDbVertex
100
AcDb2dVertex
 10
144.9754450621882
 20
-157.0180440067451
 30
0.0
  0
SEQEND
  5
54
330
51
100
AcDbEntity
  8
LIVELLO_1
 62
     7
  0
POLYLINE
  5
55
330
1F
100
AcDbEntity
  8
LIVELLO_1
 62
     7
100
AcDb2dPolyline
 66
     1
 10
0.0
 20
0.0
 30
0.0
  0
VERTEX
  5
56
330
55
100
AcDbEntity
  8
LIVELLO_1
 62
     7
100
AcDbVertex
100
AcDb2dVertex
 10
144.9754450621882
 20
-157.0180440067451
 30
0.0
  0
VERTEX
  5
57
330
55
100
AcDbEntity
  8
LIVELLO_1
 62
     7
100
AcDbVertex
100
AcDb2dVertex
 10
144.9754450621882
 20
-157.3909130771719
 30
0.0
  0
SEQEND
  5
58
330
55
100
AcDbEntity
  8
LIVELLO_1
 62
     7
  0
POLYLINE
  5
59
330
1F
100
AcDbEntity
  8
LIVELLO_1
 62
     7
100
AcDb2dPolyline
 66
     1
 10
0.0
 20
0.0
 30
0.0
  0
VERTEX
  5
5A
330
59
100
AcDbEntity
  8
LIVELLO_1
 62
     7
100
AcDbVertex
100
AcDb2dVertex
 10
122.6034762221211
 20
-156.8691419179506
 30
0.0
  0
VERTEX
  5
5B
330
59
100
AcDbEntity
  8
LIVELLO_1
 62
     7
100
AcDbVertex
100
AcDb2dVertex
 10
122.6034762221211
 20
-157.0180440067451
 30
0.0
  0
SEQEND
  5
5C
330
59
100
AcDbEntity
  8
LIVELLO_1
 62
     7
  0
POLYLINE
  5
5D
330
1F
100
AcDbEntity
  8
LIVELLO_1
 62
     7
100
AcDb2dPolyline
 66
     1
 10
0.0
 20
0.0
 30
0.0
  0
VERTEX
  5
5E
330
5D
100
AcDbEntity
  8
LIVELLO_1
 62
     7
100
AcDbVertex
100
AcDb2dVertex
 10
122.6034762221211
 20
-157.0180440067451
 30
0.0
  0
VERTEX
  5
5F
330
5D
100
AcDbEntity
  8
LIVELLO_1
 62
     7
100
AcDbVertex
100
AcDb2dVertex
 10
122.6034762221211
 20
-157.3909130771719
 30
0.0
  0
SEQEND
  5
60
330
5D
100
AcDbEntity
  8
LIVELLO_1
 62
     7
  0
POLYLINE
  5
61
330
1F
100
AcDbEntity
  8
LIVELLO_1
 62
     7
100
AcDb2dPolyline
 66
     1
 10
0.0
 20
0.0
 30
0.0
  0
VERTEX
  5
62
330
61
100
AcDbEntity
  8
LIVELLO_1
 62
     7
100
AcDbVertex
100
AcDb2dVertex
 10
89.32780554379768
 20
-109.415414222504
 30
0.0
  0
VERTEX
  5
63
330
61
100
AcDbEntity
  8
LIVELLO_1
 62
     7
100
AcDbVertex
100
AcDb2dVertex
 10
89.75039633644633
 20
-109.415414222504
 30
0.0
  0
SEQEND
  5
64
330
61
100
AcDbEntity
  8
LIVELLO_1
 62
     7
  0
POLYLINE
  5
65
330
1F
100
AcDbEntity
  8
LIVELLO_1
 62
     7
100
AcDb2dPolyline
 66
     1
 10
0.0
 20
0.0
 30
0.0
  0
VERTEX
  5
66
330
65
100
AcDbEntity
  8
LIVELLO_1
 62
     7
100
AcDbVertex
100
AcDb2dVertex
 10
95.96482238172877
 20
-109.415414222504
 30
0.0
  0
VERTEX
  5
67
330
65
100
AcDbEntity
  8
LIVELLO_1
 62
     7
100
AcDbVertex
100
AcDb2dVertex
 10
96.5365783410738
 20
-109.415414222504
 30
0.0
  0
SEQEND
  5
68
330
65
100
AcDbEntity
  8
LIVELLO_1
 62
     7
  0
SPLINE
  5
69
330
1F
100
AcDbEntity
  8
LIVELLO_1
 62
     7
100
AcDbSpline
210
0.0
220
0.0
230
1.0
 70
     8
 71
     3
 72
     8
 73
     4
 74
     0
 42
0.0000000001
 43
0.0000000001
 12
1.0
 22
0.0
 32
0.0
 13
1.0
 23
0.0
 33
0.0
 40
0.0
 40
0.0
 40
0.0
 40
0.0
 40
1.0
 40
1.0
 40
1.0
 40
1.0
 10
89.35516564491589
 20
-109.1272562344023
 30
0.0
 10
89.36454875651981
 20
-109.0786745163825
 30
0.0
 10
89.37594879865037
 20
-109.0304435688924
 30
0.0
 10
89.38875192289423
 20
-108.9826510845604
 30
0.0
  0
POLYLINE
  5
6A
330
1F
100
AcDbEntity
  8
LIVELLO_1
 62
     7
100
AcDb2dPolyline
 66
     1
 10
0.0
 20
0.0
 30
0.0
  0
VERTEX
  5
6B
330
6A
100
AcDbEntity
  8
LIVELLO_1
 62
     7
100
AcDbVertex
100
AcDb2dVertex
 10
89.32780554379768
 20
-110.246126523564
 30
0.0
  0
VERTEX
  5
6C
330
6A
100
AcDbEntity
  8
LIVELLO_1
 62
     7
100
AcDbVertex
100
AcDb2dVertex
 10
89.32780554379768
 20
-109.2519551568227
 30
0.0
  0
SEQEND
  5
6D
330
6A
100
AcDbEntity
  8
LIVELLO_1
 62
     7
  0
POLYLINE
  5
6E
330
1F
100
AcDbEntity
  8
LIVELLO_1
 62
     7
100
AcDb2dPolyline
 66
     1
 10
0.0
 20
0.0
 30
0.0
  0
VERTEX
  5
6F
330
6E
100
AcDbEntity
  8
LIVELLO_1
 62
     7
100
AcDbVertex
100
AcDb2dVertex
 10
90.3220646031636
 20
-108.2575207121884
 30
0.0
  0
VERTEX
  5
70
330
6E
100
AcDbEntity
  8
LIVELLO_1
 62
     7
100
AcDbVertex
100
AcDb2dVertex
 10
90.3220646031636
 20
-108.3182917060265
 30
0.0
  0
SEQEND
  5
71
330
6E
100
AcDbEntity
  8
LIVELLO_1
 62
     7
  0
SPLINE
  5
72
330
1F
100
AcDbEntity
  8
LIVELLO_1
 62
     7
100
AcDbSpline
210
0.0
220
0.0
230
1.0
 70
     8
 71
     3
 72
     8
 73
     4
 74
     0
 42
0.0000000001
 43
0.0000000001
 12
1.0
 22
0.0
 32
0.0
 13
1.0
 23
0.0
 33
0.0
 40
0.0
 40
0.0
 40
0.0
 40
0.0
 40
1.0
 40
1.0
 40
1.0
 40
1.0
 10
90.13440237110815
 20
-108.3361810029162
 30
0.0
 10
89.73136703534232
 20
-108.4148412936403
 30
0.0
 10
89.52371088323987
 20
-108.5948742667319
 30
0.0
 10
89.38875192289423
 20
-108.9826510845604
 30
0.0
  0
POLYLINE
  5
73
330
1F
100
AcDbEntity
  8
LIVELLO_1
 62
     7
100
AcDb2dPolyline
 66
     1
 10
0.0
 20
0.0
 30
0.0
  0
VERTEX
  5
74
330
73
100
AcDbEntity
  8
LIVELLO_1
 62
     7
100
AcDbVertex
100
AcDb2dVertex
 10
95.61615647768859
 20
-108.3182917060265
 30
0.0
  0
VERTEX
  5
75
330
73
100
AcDbEntity
  8
LIVELLO_1
 62
     7
100
AcDbVertex
100
AcDb2dVertex
 10
90.3220646031636
 20
-108.3182917060265
 30
0.0
  0
SEQEND
  5
76
330
73
100
AcDbEntity
  8
LIVELLO_1
 62
     7
  0
POLYLINE
  5
77
330
1F
100
AcDbEntity
  8
LIVELLO_1
 62
     7
100
AcDb2dPolyline
 66
     1
 10
0.0
 20
0.0
 30
0.0
  0
VERTEX
  5
78
330
77
100
AcDbEntity
  8
LIVELLO_1
 62
     7
100
AcDbVertex
100
AcDb2dVertex
 10
90.3220646031636
 20
-108.2575207121884
 30
0.0
  0
VERTEX
  5
79
330
77
100
AcDbEntity
  8
LIVELLO_1
 62
     7
100
AcDbVertex
100
AcDb2dVertex
 10
95.6769274715232
 20
-108.2575207121884
 30
0.0
  0
SEQEND
  5
7A
330
77
100
AcDbEntity
  8
LIVELLO_1
 62
     7
  0
POLYLINE
  5
7B
330
1F
100
AcDbEntity
  8
LIVELLO_1
 62
     7
100
AcDb2dPolyline
 66
     1
 10
0.0
 20
0.0
 30
0.0
  0
VERTEX
  5
7C
330
7B
100
AcDbEntity
  8
LIVELLO_1
 62
     7
100
AcDbVertex
100
AcDb2dVertex
 10
95.6769274715232
 20
-108.2575207121884
 30
0.0
  0
VERTEX
  5
7D
330
7B
100
AcDbEntity
  8
LIVELLO_1
 62
     7
100
AcDbVertex
100
AcDb2dVertex
 10
95.61615647768859
 20
-108.3182917060265
 30
0.0
  0
SEQEND
  5
7E
330
7B
100
AcDbEntity
  8
LIVELLO_1
 62
     7
  0
POLYLINE
  5
7F
330
1F
100
AcDbEntity
  8
LIVELLO_1
 62
     7
100
AcDb2dPolyline
 66
     1
 10
0.0
 20
0.0
 30
0.0
  0
VERTEX
  5
80
330
7F
100
AcDbEntity
  8
LIVELLO_1
 62
     7
100
AcDbVertex
100
AcDb2dVertex
 10
96.67101114562747
 20
-109.2516920789301
 30
0.0
  0
VERTEX
  5
81
330
7F
100
AcDbEntity
  8
LIVELLO_1
 62
     7
100
AcDbVertex
100
AcDb2dVertex
 10
96.5365783410738
 20
-109.3862125761115
 30
0.0
  0
SEQEND
  5
82
330
7F
100
AcDbEntity
  8
LIVELLO_1
 62
     7
  0
SPLINE
  5
83
330
1F
100
AcDbEntity
  8
LIVELLO_1
 62
     7
100
AcDbSpline
210
0.0
220
0.0
230
1.0
 70
     8
 71
     3
 72
     8
 73
     4
 74
     0
 42
0.0000000001
 43
0.0000000001
 12
1.0
 22
0.0
 32
0.0
 13
1.0
 23
0.0
 33
0.0
 40
0.0
 40
0.0
 40
0.0
 40
0.0
 40
1.0
 40
1.0
 40
1.0
 40
1.0
 10
96.47554426934306
 20
-108.8481305873755
 30
0.0
 10
96.31068212155483
 20
-108.5123555002069
 30
0.0
 10
96.10171057997262
 20
-108.365733419832
 30
0.0
 10
95.72998151376332
 20
-108.3247809607828
 30
0.0
  0
SPLINE
  5
84
330
1F
100
AcDbEntity
  8
LIVELLO_1
 62
     7
100
AcDbSpline
210
0.0
220
0.0
230
1.0
 70
     8
 71
     3
 72
     8
 73
     4
 74
     0
 42
0.0000000001
 43
0.0000000001
 12
1.0
 22
0.0
 32
0.0
 13
1.0
 23
0.0
 33
0.0
 40
0.0
 40
0.0
 40
0.0
 40
0.0
 40
1.0
 40
1.0
 40
1.0
 40
1.0
 10
90.3220646031636
 20
-108.3182917060265
 30
0.0
 10
90.25866283037043
 20
-108.3182917060265
 30
0.0
 10
90.19666413968383
 20
-108.3241671123599
 30
0.0
 10
90.13440237110815
 20
-108.3361810029162
 30
0.0
  0
SPLINE
  5
85
330
1F
100
AcDbEntity
  8
LIVELLO_1
 62
     7
100
AcDbSpline
210
0.0
220
0.0
230
1.0
 70
     8
 71
     3
 72
     8
 73
     4
 74
     0
 42
0.0000000001
 43
0.0000000001
 12
1.0
 22
0.0
 32
0.0
 13
1.0
 23
0.0
 33
0.0
 40
0.0
 40
0.0
 40
0.0
 40
0.0
 40
1.0
 40
1.0
 40
1.0
 40
1.0
 10
95.72998151376332
 20
-108.3247809607828
 30
0.0
 10
95.69209829682339
 20
-108.3203963291899
 30
0.0
 10
95.65430277251762
 20
-108.3182917060265
 30
0.0
 10
95.61615647768859
 20
-108.3182917060265
 30
0.0
  0
POLYLINE
  5
86
330
1F
100
AcDbEntity
  8
LIVELLO_1
 62
     7
100
AcDb2dPolyline
 66
     1
 10
0.0
 20
0.0
 30
0.0
  0
VERTEX
  5
87
330
86
100
AcDbEntity
  8
LIVELLO_1
 62
     7
100
AcDbVertex
100
AcDb2dVertex
 10
62.61610374110565
 20
-106.5174358193405
 30
0.0
  0
VERTEX
  5
88
330
86
100
AcDbEntity
  8
LIVELLO_1
 62
     7
100
AcDbVertex
100
AcDb2dVertex
 10
101.5577707454251
 20
-106.5174358193405
 30
0.0
  0
SEQEND
  5
89
330
86
100
AcDbEntity
  8
LIVELLO_1
 62
     7
  0
POLYLINE
  5
8A
330
1F
100
AcDbEntity
  8
LIVELLO_1
 62
     7
100
AcDb2dPolyline
 66
     1
 10
0.0
 20
0.0
 30
0.0
  0
VERTEX
  5
8B
330
8A
100
AcDbEntity
  8
LIVELLO_1
 62
     7
100
AcDbVertex
100
AcDb2dVertex
 10
101.5577707454251
 20
-106.7257058198717
 30
0.0
  0
VERTEX
  5
8C
330
8A
100
AcDbEntity
  8
LIVELLO_1
 62
     7
100
AcDbVertex
100
AcDb2dVertex
 10
145.0142052054433
 20
-106.7257058198717
 30
0.0
  0
SEQEND
  5
8D
330
8A
100
AcDbEntity
  8
LIVELLO_1
 62
     7
  0
POLYLINE
  5
8E
330
1F
100
AcDbEntity
  8
LIVELLO_1
 62
     7
100
AcDb2dPolyline
 66
     1
 10
0.0
 20
0.0
 30
0.0
  0
VERTEX
  5
8F
330
8E
100
AcDbEntity
  8
LIVELLO_1
 62
     7
100
AcDbVertex
100
AcDb2dVertex
 10
145.0142052054433
 20
-106.7257058198717
 30
0.0
  0
VERTEX
  5
90
330
8E
100
AcDbEntity
  8
LIVELLO_1
 62
     7
100
AcDbVertex
100
AcDb2dVertex
 10
145.2224752059777
 20
-106.5174358193405
 30
0.0
  0
SEQEND
  5
91
330
8E
100
AcDbEntity
  8
LIVELLO_1
 62
     7
  0
POLYLINE
  5
92
330
1F
100
AcDbEntity
  8
LIVELLO_1
 62
     7
100
AcDb2dPolyline
 66
     1
 10
0.0
 20
0.0
 30
0.0
  0
VERTEX
  5
93
330
92
100
AcDbEntity
  8
LIVELLO_1
 62
     7
100
AcDbVertex
100
AcDb2dVertex
 10
145.2224752059777
 20
-106.5174358193405
 30
0.0
  0
VERTEX
  5
94
330
92
100
AcDbEntity
  8
LIVELLO_1
 62
     7
100
AcDbVertex
100
AcDb2dVertex
 10
147.4596896285089
 20
-106.5174358193405
 30
0.0
  0
SEQEND
  5
95
330
92
100
AcDbEntity
  8
LIVELLO_1
 62
     7
  0
SPLINE
  5
96
330
1F
100
AcDbEntity
  8
LIVELLO_1
 62
     7
100
AcDbSpline
210
0.0
220
0.0
230
1.0
 70
     8
 71
     3
 72
     8
 73
     4
 74
     0
 42
0.0000000001
 43
0.0000000001
 12
1.0
 22
0.0
 32
0.0
 13
1.0
 23
0.0
 33
0.0
 40
0.0
 40
0.0
 40
0.0
 40
0.0
 40
1.0
 40
1.0
 40
1.0
 40
1.0
 10
96.5365783410738
 20
-109.3862125761115
 30
0.0
 10
96.53447371791941
 20
-109.2038119019639
 30
0.0
 10
96.5143921052321
 20
-109.026322015196
 30
0.0
 10
96.47554426934306
 20
-108.8481305873755
 30
0.0
  0
POLYLINE
  5
97
330
1F
100
AcDbEntity
  8
LIVELLO_1
 62
     7
100
AcDb2dPolyline
 66
     1
 10
0.0
 20
0.0
 30
0.0
  0
VERTEX
  5
98
330
97
100
AcDbEntity
  8
LIVELLO_1
 62
     7
100
AcDbVertex
100
AcDb2dVertex
 10
96.5365783410738
 20
-109.3862125761115
 30
0.0
  0
VERTEX
  5
99
330
97
100
AcDbEntity
  8
LIVELLO_1
 62
     7
100
AcDbVertex
100
AcDb2dVertex
 10
96.5365783410738
 20
-109.415414222504
 30
0.0
  0
SEQEND
  5
9A
330
97
100
AcDbEntity
  8
LIVELLO_1
 62
     7
  0
POLYLINE
  5
9B
330
1F
100
AcDbEntity
  8
LIVELLO_1
 62
     7
100
AcDb2dPolyline
 66
     1
 10
0.0
 20
0.0
 30
0.0
  0
VERTEX
  5
9C
330
9B
100
AcDbEntity
  8
LIVELLO_1
 62
     7
100
AcDbVertex
100
AcDb2dVertex
 10
96.67101114562747
 20
-109.2516920789301
 30
0.0
  0
VERTEX
  5
9D
330
9B
100
AcDbEntity
  8
LIVELLO_1
 62
     7
100
AcDbVertex
100
AcDb2dVertex
 10
96.67101114562747
 20
-110.246126523564
 30
0.0
  0
SEQEND
  5
9E
330
9B
100
AcDbEntity
  8
LIVELLO_1
 62
     7
  0
POLYLINE
  5
9F
330
1F
100
AcDbEntity
  8
LIVELLO_1
 62
     7
100
AcDb2dPolyline
 66
     1
 10
0.0
 20
0.0
 30
0.0
  0
VERTEX
  5
A0
330
9F
100
AcDbEntity
  8
LIVELLO_1
 62
     7
100
AcDbVertex
100
AcDb2dVertex
 10
96.67101114562747
 20
-110.246126523564
 30
0.0
  0
VERTEX
  5
A1
330
9F
100
AcDbEntity
  8
LIVELLO_1
 62
     7
100
AcDbVertex
100
AcDb2dVertex
 10
96.5365783410738
 20
-110.3806470207484
 30
0.0
  0
SEQEND
  5
A2
330
9F
100
AcDbEntity
  8
LIVELLO_1
 62
     7
  0
POLYLINE
  5
A3
330
1F
100
AcDbEntity
  8
LIVELLO_1
 62
     7
100
AcDb2dPolyline
 66
     1
 10
0.0
 20
0.0
 30
0.0
  0
VERTEX
  5
A4
330
A3
100
AcDbEntity
  8
LIVELLO_1
 62
     7
100
AcDbVertex
100
AcDb2dVertex
 10
96.5365783410738
 20
-110.3806470207484
 30
0.0
  0
VERTEX
  5
A5
330
A3
100
AcDbEntity
  8
LIVELLO_1
 62
     7
100
AcDbVertex
100
AcDb2dVertex
 10
96.5365783410738
 20
-109.415414222504
 30
0.0
  0
SEQEND
  5
A6
330
A3
100
AcDbEntity
  8
LIVELLO_1
 62
     7
  0
POLYLINE
  5
A7
330
1F
100
AcDbEntity
  8
LIVELLO_1
 62
     7
100
AcDb2dPolyline
 66
     1
 10
0.0
 20
0.0
 30
0.0
  0
VERTEX
  5
A8
330
A7
100
AcDbEntity
  8
LIVELLO_1
 62
     7
100
AcDbVertex
100
AcDb2dVertex
 10
145.2224752059777
 20
-106.5174358193405
 30
0.0
  0
VERTEX
  5
A9
330
A7
100
AcDbEntity
  8
LIVELLO_1
 62
     7
100
AcDbVertex
100
AcDb2dVertex
 10
145.2224752059777
 20
-152.8315977645225
 30
0.0
  0
SEQEND
  5
AA
330
A7
100
AcDbEntity
  8
LIVELLO_1
 62
     7
  0
POLYLINE
  5
AB
330
1F
100
AcDbEntity
  8
LIVELLO_1
 62
     7
100
AcDb2dPolyline
 66
     1
 10
0.0
 20
0.0
 30
0.0
  0
VERTEX
  5
AC
330
AB
100
AcDbEntity
  8
LIVELLO_1
 62
     7
100
AcDbVertex
100
AcDb2dVertex
 10
145.2224752059777
 20
-152.8315977645225
 30
0.0
  0
VERTEX
  5
AD
330
AB
100
AcDbEntity
  8
LIVELLO_1
 62
     7
100
AcDbVertex
100
AcDb2dVertex
 10
121.6076386953796
 20
-152.8315977645225
 30
0.0
  0
SEQEND
  5
AE
330
AB
100
AcDbEntity
  8
LIVELLO_1
 62
     7
  0
POLYLINE
  5
AF
330
1F
100
AcDbEntity
  8
LIVELLO_1
 62
     7
100
AcDb2dPolyline
 66
     1
 10
0.0
 20
0.0
 30
0.0
  0
VERTEX
  5
B0
330
AF
100
AcDbEntity
  8
LIVELLO_1
 62
     7
100
AcDbVertex
100
AcDb2dVertex
 10
121.6076386953796
 20
-152.8315977645225
 30
0.0
  0
VERTEX
  5
B1
330
AF
100
AcDbEntity
  8
LIVELLO_1
 62
     7
100
AcDbVertex
100
AcDb2dVertex
 10
121.6076386953796
 20
-156.8865927516797
 30
0.0
  0
SEQEND
  5
B2
330
AF
100
AcDbEntity
  8
LIVELLO_1
 62
     7
  0
POLYLINE
  5
B3
330
1F
100
AcDbEntity
  8
LIVELLO_1
 62
     7
100
AcDb2dPolyline
 66
     1
 10
0.0
 20
0.0
 30
0.0
  0
VERTEX
  5
B4
330
B3
100
AcDbEntity
  8
LIVELLO_1
 62
     7
100
AcDbVertex
100
AcDb2dVertex
 10
147.4596896285089
 20
-156.435326468427
 30
0.0
  0
VERTEX
  5
B5
330
B3
100
AcDbEntity
  8
LIVELLO_1
 62
     7
100
AcDbVertex
100
AcDb2dVertex
 10
147.4596896285089
 20
-106.5174358193405
 30
0.0
  0
SEQEND
  5
B6
330
B3
100
AcDbEntity
  8
LIVELLO_1
 62
     7
  0
POLYLINE
  5
B7
330
1F
100
AcDbEntity
  8
LIVELLO_1
 62
     7
100
AcDb2dPolyline
 66
     1
 10
0.0
 20
0.0
 30
0.0
  0
VERTEX
  5
B8
330
B7
100
AcDbEntity
  8
LIVELLO_1
 62
     7
100
AcDbVertex
100
AcDb2dVertex
 10
109.0048921159533
 20
-188.3783322212571
 30
0.0
  0
VERTEX
  5
B9
330
B7
100
AcDbEntity
  8
LIVELLO_1
 62
     7
100
AcDbVertex
100
AcDb2dVertex
 10
109.0048921159533
 20
-187.6324186951537
 30
0.0
  0
SEQEND
  5
BA
330
B7
100
AcDbEntity
  8
LIVELLO_1
 62
     7
  0
POLYLINE
  5
BB
330
1F
100
AcDbEntity
  8
LIVELLO_1
 62
     7
100
AcDb2dPolyline
 66
     1
 10
0.0
 20
0.0
 30
0.0
  0
VERTEX
  5
BC
330
BB
100
AcDbEntity
  8
LIVELLO_1
 62
     7
100
AcDbVertex
100
AcDb2dVertex
 10
109.0048921159533
 20
-187.6324186951537
 30
0.0
  0
VERTEX
  5
BD
330
BB
100
AcDbEntity
  8
LIVELLO_1
 62
     7
100
AcDbVertex
100
AcDb2dVertex
 10
83.67040309571787
 20
-187.6324186951537
 30
0.0
  0
SEQEND
  5
BE
330
BB
100
AcDbEntity
  8
LIVELLO_1
 62
     7
  0
POLYLINE
  5
BF
330
1F
100
AcDbEntity
  8
LIVELLO_1
 62
     7
100
AcDb2dPolyline
 66
     1
 10
0.0
 20
0.0
 30
0.0
  0
VERTEX
  5
C0
330
BF
100
AcDbEntity
  8
LIVELLO_1
 62
     7
100
AcDbVertex
100
AcDb2dVertex
 10
83.67040309571787
 20
-187.6324186951537
 30
0.0
  0
VERTEX
  5
C1
330
BF
100
AcDbEntity
  8
LIVELLO_1
 62
     7
100
AcDbVertex
100
AcDb2dVertex
 10
83.67040309571787
 20
-188.3783322212571
 30
0.0
  0
SEQEND
  5
C2
330
BF
100
AcDbEntity
  8
LIVELLO_1
 62
     7
  0
SPLINE
  5
C3
330
1F
100
AcDbEntity
  8
LIVELLO_1
 62
     7
100
AcDbSpline
210
0.0
220
0.0
230
1.0
 70
     8
 71
     3
 72
     8
 73
     4
 74
     0
 42
0.0000000001
 43
0.0000000001
 12
1.0
 22
0.0
 32
0.0
 13
1.0
 23
0.0
 33
0.0
 40
0.0
 40
0.0
 40
0.0
 40
0.0
 40
1.0
 40
1.0
 40
1.0
 40
1.0
 10
83.67040309571787
 20
-188.3783322212571
 30
0.0
 10
83.67049078834565
 20
-189.0812763577842
 30
0.0
 10
83.37926355813465
 20
-189.3725035880016
 30
0.0
 10
82.6763194216075
 20
-189.3725035880016
 30
0.0
  0
POLYLINE
  5
C4
330
1F
100
AcDbEntity
  8
LIVELLO_1
 62
     7
100
AcDb2dPolyline
 66
     1
 10
0.0
 20
0.0
 30
0.0
  0
VERTEX
  5
C5
330
C4
100
AcDbEntity
  8
LIVELLO_1
 62
     7
100
AcDbVertex
100
AcDb2dVertex
 10
82.6763194216075
 20
-189.3725035880016
 30
0.0
  0
VERTEX
  5
C6
330
C4
100
AcDbEntity
  8
LIVELLO_1
 62
     7
100
AcDbVertex
100
AcDb2dVertex
 10
77.57006516441304
 20
-189.3725035880016
 30
0.0
  0
SEQEND
  5
C7
330
C4
100
AcDbEntity
  8
LIVELLO_1
 62
     7
  0
SPLINE
  5
C8
330
1F
100
AcDbEntity
  8
LIVELLO_1
 62
     7
100
AcDbSpline
210
0.0
220
0.0
230
1.0
 70
     8
 71
     3
 72
     8
 73
     4
 74
     0
 42
0.0000000001
 43
0.0000000001
 12
1.0
 22
0.0
 32
0.0
 13
1.0
 23
0.0
 33
0.0
 40
0.0
 40
0.0
 40
0.0
 40
0.0
 40
1.0
 40
1.0
 40
1.0
 40
1.0
 10
77.57006516441304
 20
-189.3725035880016
 30
0.0
 10
76.86694564262393
 20
-189.3724158953675
 30
0.0
 10
76.57571841241294
 20
-189.0811009725165
 30
0.0
 10
76.57580610504039
 20
-188.3779814507274
 30
0.0
  0
POLYLINE
  5
C9
330
1F
100
AcDbEntity
  8
LIVELLO_1
 62
     7
100
AcDb2dPolyline
 66
     1
 10
0.0
 20
0.0
 30
0.0
  0
VERTEX
  5
CA
330
C9
100
AcDbEntity
  8
LIVELLO_1
 62
     7
100
AcDbVertex
100
AcDb2dVertex
 10
76.57580610504039
 20
-188.3779814507274
 30
0.0
  0
VERTEX
  5
CB
330
C9
100
AcDbEntity
  8
LIVELLO_1
 62
     7
100
AcDbVertex
100
AcDb2dVertex
 10
76.57580610504039
 20
-187.6324186951537
 30
0.0
  0
SEQEND
  5
CC
330
C9
100
AcDbEntity
  8
LIVELLO_1
 62
     7
  0
POLYLINE
  5
CD
330
1F
100
AcDbEntity
  8
LIVELLO_1
 62
     7
100
AcDb2dPolyline
 66
     1
 10
0.0
 20
0.0
 30
0.0
  0
VERTEX
  5
CE
330
CD
100
AcDbEntity
  8
LIVELLO_1
 62
     7
100
AcDbVertex
100
AcDb2dVertex
 10
76.57580610504039
 20
-187.6324186951537
 30
0.0
  0
VERTEX
  5
CF
330
CD
100
AcDbEntity
  8
LIVELLO_1
 62
     7
100
AcDbVertex
100
AcDb2dVertex
 10
66.3447067526982
 20
-187.6324186951537
 30
0.0
  0
SEQEND
  5
D0
330
CD
100
AcDbEntity
  8
LIVELLO_1
 62
     7
  0
POLYLINE
  5
D1
330
1F
100
AcDbEntity
  8
LIVELLO_1
 62
     7
100
AcDb2dPolyline
 66
     1
 10
0.0
 20
0.0
 30
0.0
  0
VERTEX
  5
D2
330
D1
100
AcDbEntity
  8
LIVELLO_1
 62
     7
100
AcDbVertex
100
AcDb2dVertex
 10
66.3447067526982
 20
-187.6324186951537
 30
0.0
  0
VERTEX
  5
D3
330
D1
100
AcDbEntity
  8
LIVELLO_1
 62
     7
100
AcDbVertex
100
AcDb2dVertex
 10
66.3447067526982
 20
-120.7650330934773
 30
0.0
  0
SEQEND
  5
D4
330
D1
100
AcDbEntity
  8
LIVELLO_1
 62
     7
  0
POLYLINE
  5
D5
330
1F
100
AcDbEntity
  8
LIVELLO_1
 62
     7
100
AcDb2dPolyline
 66
     1
 10
0.0
 20
0.0
 30
0.0
  0
VERTEX
  5
D6
330
D5
100
AcDbEntity
  8
LIVELLO_1
 62
     7
100
AcDbVertex
100
AcDb2dVertex
 10
66.3447067526982
 20
-120.7650330934773
 30
0.0
  0
VERTEX
  5
D7
330
D5
100
AcDbEntity
  8
LIVELLO_1
 62
     7
100
AcDbVertex
100
AcDb2dVertex
 10
64.85331816364322
 20
-120.7650330934773
 30
0.0
  0
SEQEND
  5
D8
330
D5
100
AcDbEntity
  8
LIVELLO_1
 62
     7
  0
POLYLINE
  5
D9
330
1F
100
AcDbEntity
  8
LIVELLO_1
 62
     7
100
AcDb2dPolyline
 66
     1
 10
0.0
 20
0.0
 30
0.0
  0
VERTEX
  5
DA
330
D9
100
AcDbEntity
  8
LIVELLO_1
 62
     7
100
AcDbVertex
100
AcDb2dVertex
 10
64.85331816364322
 20
-120.7650330934773
 30
0.0
  0
VERTEX
  5
DB
330
D9
100
AcDbEntity
  8
LIVELLO_1
 62
     7
100
AcDbVertex
100
AcDb2dVertex
 10
64.85331816364322
 20
-110.246126523564
 30
0.0
  0
SEQEND
  5
DC
330
D9
100
AcDbEntity
  8
LIVELLO_1
 62
     7
  0
POLYLINE
  5
DD
330
1F
100
AcDbEntity
  8
LIVELLO_1
 62
     7
100
AcDb2dPolyline
 66
     1
 10
0.0
 20
0.0
 30
0.0
  0
VERTEX
  5
DE
330
DD
100
AcDbEntity
  8
LIVELLO_1
 62
     7
100
AcDbVertex
100
AcDb2dVertex
 10
64.85331816364322
 20
-110.246126523564
 30
0.0
  0
VERTEX
  5
DF
330
DD
100
AcDbEntity
  8
LIVELLO_1
 62
     7
100
AcDbVertex
100
AcDb2dVertex
 10
89.32780554379768
 20
-110.246126523564
 30
0.0
  0
SEQEND
  5
E0
330
DD
100
AcDbEntity
  8
LIVELLO_1
 62
     7
  0
SPLINE
  5
E1
330
1F
100
AcDbEntity
  8
LIVELLO_1
 62
     7
100
AcDbSpline
210
0.0
220
0.0
230
1.0
 70
     8
 71
     3
 72
     8
 73
     4
 74
     0
 42
0.0000000001
 43
0.0000000001
 12
1.0
 22
0.0
 32
0.0
 13
1.0
 23
0.0
 33
0.0
 40
0.0
 40
0.0
 40
0.0
 40
0.0
 40
1.0
 40
1.0
 40
1.0
 40
1.0
 10
89.32780554379768
 20
-109.2511659231381
 30
0.0
 10
89.32824400694872
 20
-108.5484848645064
 30
0.0
 10
89.61938354453868
 20
-108.2576084048194
 30
0.0
 10
90.3220646031636
 20
-108.2575207121884
 30
0.0
  0
SPLINE
  5
E2
330
1F
100
AcDbEntity
  8
LIVELLO_1
 62
     7
100
AcDbSpline
210
0.0
220
0.0
230
1.0
 70
     8
 71
     3
 72
     8
 73
     4
 74
     0
 42
0.0000000001
 43
0.0000000001
 12
1.0
 22
0.0
 32
0.0
 13
1.0
 23
0.0
 33
0.0
 40
0.0
 40
0.0
 40
0.0
 40
0.0
 40
1.0
 40
1.0
 40
1.0
 40
1.0
 10
95.6769274715232
 20
-108.2575207121884
 30
0.0
 10
96.37987160805066
 20
-108.2574330195574
 30
0.0
 10
96.67109883826134
 20
-108.5486602497716
 30
0.0
 10
96.67101114562747
 20
-109.2516920789301
 30
0.0
  0
POLYLINE
  5
E3
330
1F
100
AcDbEntity
  8
LIVELLO_1
 62
     7
100
AcDb2dPolyline
 66
     1
 10
0.0
 20
0.0
 30
0.0
  0
VERTEX
  5
E4
330
E3
100
AcDbEntity
  8
LIVELLO_1
 62
     7
100
AcDbVertex
100
AcDb2dVertex
 10
96.67101114562747
 20
-110.246126523564
 30
0.0
  0
VERTEX
  5
E5
330
E3
100
AcDbEntity
  8
LIVELLO_1
 62
     7
100
AcDbVertex
100
AcDb2dVertex
 10
101.5577707454251
 20
-110.246126523564
 30
0.0
  0
SEQEND
  5
E6
330
E3
100
AcDbEntity
  8
LIVELLO_1
 62
     7
  0
POLYLINE
  5
E7
330
1F
100
AcDbEntity
  8
LIVELLO_1
 62
     7
100
AcDb2dPolyline
 66
     1
 10
0.0
 20
0.0
 30
0.0
  0
VERTEX
  5
E8
330
E7
100
AcDbEntity
  8
LIVELLO_1
 62
     7
100
AcDbVertex
100
AcDb2dVertex
 10
101.5577707454251
 20
-110.246126523564
 30
0.0
  0
VERTEX
  5
E9
330
E7
100
AcDbEntity
  8
LIVELLO_1
 62
     7
100
AcDbVertex
100
AcDb2dVertex
 10
101.5577707454251
 20
-106.5174358193405
 30
0.0
  0
SEQEND
  5
EA
330
E7
100
AcDbEntity
  8
LIVELLO_1
 62
     7
  0
POLYLINE
  5
EB
330
1F
100
AcDbEntity
  8
LIVELLO_1
 62
     7
100
AcDb2dPolyline
 66
     1
 10
0.0
 20
0.0
 30
0.0
  0
VERTEX
  5
EC
330
EB
100
AcDbEntity
  8
LIVELLO_1
 62
     7
100
AcDbVertex
100
AcDb2dVertex
 10
62.61610374110565
 20
-106.5174358193405
 30
0.0
  0
VERTEX
  5
ED
330
EB
100
AcDbEntity
  8
LIVELLO_1
 62
     7
100
AcDbVertex
100
AcDb2dVertex
 10
62.61610374110565
 20
-191.3611093993741
 30
0.0
  0
SEQEND
  5
EE
330
EB
100
AcDbEntity
  8
LIVELLO_1
 62
     7
  0
POLYLINE
  5
EF
330
1F
100
AcDbEntity
  8
LIVELLO_1
 62
     7
100
AcDb2dPolyline
 66
     1
 10
0.0
 20
0.0
 30
0.0
  0
VERTEX
  5
F0
330
EF
100
AcDbEntity
  8
LIVELLO_1
 62
     7
100
AcDbVertex
100
AcDb2dVertex
 10
62.61610374110565
 20
-191.3611093993741
 30
0.0
  0
VERTEX
  5
F1
330
EF
100
AcDbEntity
  8
LIVELLO_1
 62
     7
100
AcDbVertex
100
AcDb2dVertex
 10
147.4596896285089
 20
-191.3611093993741
 30
0.0
  0
SEQEND
  5
F2
330
EF
100
AcDbEntity
  8
LIVELLO_1
 62
     7
  0
POLYLINE
  5
F3
330
1F
100
AcDbEntity
  8
LIVELLO_1
 62
     7
100
AcDb2dPolyline
 66
     1
 10
0.0
 20
0.0
 30
0.0
  0
VERTEX
  5
F4
330
F3
100
AcDbEntity
  8
LIVELLO_1
 62
     7
100
AcDbVertex
100
AcDb2dVertex
 10
147.4596896285089
 20
-191.3611093993741
 30
0.0
  0
VERTEX
  5
F5
330
F3
100
AcDbEntity
  8
LIVELLO_1
 62
     7
100
AcDbVertex
100
AcDb2dVertex
 10
147.4596896285089
 20
-186.9328945712662
 30
0.0
  0
SEQEND
  5
F6
330
F3
100
AcDbEntity
  8
LIVELLO_1
 62
     7
  0
POLYLINE
  5
F7
330
1F
100
AcDbEntity
  8
LIVELLO_1
 62
     7
100
AcDb2dPolyline
 66
     1
 10
0.0
 20
0.0
 30
0.0
  0
VERTEX
  5
F8
330
F7
100
AcDbEntity
  8
LIVELLO_1
 62
     7
100
AcDbVertex
100
AcDb2dVertex
 10
121.6076386953796
 20
-186.4817159806477
 30
0.0
  0
VERTEX
  5
F9
330
F7
100
AcDbEntity
  8
LIVELLO_1
 62
     7
100
AcDbVertex
100
AcDb2dVertex
 10
121.6076386953796
 20
-187.8937427379219
 30
0.0
  0
SEQEND
  5
FA
330
F7
100
AcDbEntity
  8
LIVELLO_1
 62
     7
  0
POLYLINE
  5
FB
330
1F
100
AcDbEntity
  8
LIVELLO_1
 62
     7
100
AcDb2dPolyline
 66
     1
 10
0.0
 20
0.0
 30
0.0
  0
VERTEX
  5
FC
330
FB
100
AcDbEntity
  8
LIVELLO_1
 62
     7
100
AcDbVertex
100
AcDb2dVertex
 10
121.6076386953796
 20
-187.8937427379219
 30
0.0
  0
VERTEX
  5
FD
330
FB
100
AcDbEntity
  8
LIVELLO_1
 62
     7
100
AcDbVertex
100
AcDb2dVertex
 10
117.4667926216851
 20
-187.8937427379219
 30
0.0
  0
SEQEND
  5
FE
330
FB
100
AcDbEntity
  8
LIVELLO_1
 62
     7
  0
POLYLINE
  5
FF
330
1F
100
AcDbEntity
  8
LIVELLO_1
 62
     7
100
AcDb2dPolyline
 66
     1
 10
0.0
 20
0.0
 30
0.0
  0
VERTEX
  5
100
330
FF
100
AcDbEntity
  8
LIVELLO_1
 62
     7
100
AcDbVertex
100
AcDb2dVertex
 10
117.4667926216851
 20
-187.8937427379219
 30
0.0
  0
VERTEX
  5
101
330
FF
100
AcDbEntity
  8
LIVELLO_1
 62
     7
100
AcDbVertex
100
AcDb2dVertex
 10
117.4667926216851
 20
-187.6324186951537
 30
0.0
  0
SEQEND
  5
102
330
FF
100
AcDbEntity
  8
LIVELLO_1
 62
     7
  0
POLYLINE
  5
103
330
1F
100
AcDbEntity
  8
LIVELLO_1
 62
     7
100
AcDb2dPolyline
 66
     1
 10
0.0
 20
0.0
 30
0.0
  0
VERTEX
  5
104
330
103
100
AcDbEntity
  8
LIVELLO_1
 62
     7
100
AcDbVertex
100
AcDb2dVertex
 10
117.4667926216851
 20
-187.6324186951537
 30
0.0
  0
VERTEX
  5
105
330
103
100
AcDbEntity
  8
LIVELLO_1
 62
     7
100
AcDbVertex
100
AcDb2dVertex
 10
115.9650563020764
 20
-187.6324186951537
 30
0.0
  0
SEQEND
  5
106
330
103
100
AcDbEntity
  8
LIVELLO_1
 62
     7
  0
POLYLINE
  5
107
330
1F
100
AcDbEntity
  8
LIVELLO_1
 62
     7
100
AcDb2dPolyline
 66
     1
 10
0.0
 20
0.0
 30
0.0
  0
VERTEX
  5
108
330
107
100
AcDbEntity
  8
LIVELLO_1
 62
     7
100
AcDbVertex
100
AcDb2dVertex
 10
115.9650563020764
 20
-187.6324186951537
 30
0.0
  0
VERTEX
  5
109
330
107
100
AcDbEntity
  8
LIVELLO_1
 62
     7
100
AcDbVertex
100
AcDb2dVertex
 10
115.9650563020764
 20
-188.3777183728313
 30
0.0
  0
SEQEND
  5
10A
330
107
100
AcDbEntity
  8
LIVELLO_1
 62
     7
  0
SPLINE
  5
10B
330
1F
100
AcDbEntity
  8
LIVELLO_1
 62
     7
100
AcDbSpline
210
0.0
220
0.0
230
1.0
 70
     8
 71
     3
 72
     8
 73
     4
 74
     0
 42
0.0000000001
 43
0.0000000001
 12
1.0
 22
0.0
 32
0.0
 13
1.0
 23
0.0
 33
0.0
 40
0.0
 40
0.0
 40
0.0
 40
0.0
 40
1.0
 40
1.0
 40
1.0
 40
1.0
 10
115.9650563020764
 20
-188.3777183728313
 30
0.0
 10
115.9650563020764
 20
-189.0811009725165
 30
0.0
 10
115.6736536865977
 20
-189.3724158953675
 30
0.0
 10
114.9703587795466
 20
-189.3725035880016
 30
0.0
  0
POLYLINE
  5
10C
330
1F
100
AcDbEntity
  8
LIVELLO_1
 62
     7
100
AcDb2dPolyline
 66
     1
 10
0.0
 20
0.0
 30
0.0
  0
VERTEX
  5
10D
330
10C
100
AcDbEntity
  8
LIVELLO_1
 62
     7
100
AcDbVertex
100
AcDb2dVertex
 10
114.9703587795466
 20
-189.3725035880016
 30
0.0
  0
VERTEX
  5
10E
330
10C
100
AcDbEntity
  8
LIVELLO_1
 62
     7
100
AcDbVertex
100
AcDb2dVertex
 10
109.9990634826914
 20
-189.3725035880016
 30
0.0
  0
SEQEND
  5
10F
330
10C
100
AcDbEntity
  8
LIVELLO_1
 62
     7
  0
SPLINE
  5
110
330
1F
100
AcDbEntity
  8
LIVELLO_1
 62
     7
100
AcDbSpline
210
0.0
220
0.0
230
1.0
 70
     8
 71
     3
 72
     8
 73
     4
 74
     0
 42
0.0000000001
 43
0.0000000001
 12
1.0
 22
0.0
 32
0.0
 13
1.0
 23
0.0
 33
0.0
 40
0.0
 40
0.0
 40
0.0
 40
0.0
 40
1.0
 40
1.0
 40
1.0
 40
1.0
 10
109.9990634826914
 20
-189.3725035880016
 30
0.0
 10
109.2960316535365
 20
-189.3725035880016
 30
0.0
 10
109.0048921159533
 20
-189.0812763577842
 30
0.0
 10
109.0048921159533
 20
-188.3783322212571
 30
0.0
  0
POLYLINE
  5
111
330
1F
100
AcDbEntity
  8
LIVELLO_1
 62
     7
100
AcDb2dPolyline
 66
     1
 10
0.0
 20
0.0
 30
0.0
  0
VERTEX
  5
112
330
111
100
AcDbEntity
  8
LIVELLO_1
 62
     7
100
AcDbVertex
100
AcDb2dVertex
 10
145.1574072731754
 20
-152.7664421390918
 30
0.0
  0
VERTEX
  5
113
330
111
100
AcDbEntity
  8
LIVELLO_1
 62
     7
100
AcDbVertex
100
AcDb2dVertex
 10
145.1574072731754
 20
-110.6583695856654
 30
0.0
  0
SEQEND
  5
114
330
111
100
AcDbEntity
  8
LIVELLO_1
 62
     7
  0
SPLINE
  5
115
330
1F
100
AcDbEntity
  8
LIVELLO_1
 62
     7
100
AcDbSpline
210
0.0
220
0.0
230
1.0
 70
     8
 71
     3
 72
     8
 73
     4
 74
     0
 42
0.0000000001
 43
0.0000000001
 12
1.0
 22
0.0
 32
0.0
 13
1.0
 23
0.0
 33
0.0
 40
0.0
 40
0.0
 40
0.0
 40
0.0
 40
1.0
 40
1.0
 40
1.0
 40
1.0
 10
145.1574072731754
 20
-110.6583695856654
 30
0.0
 10
145.162230367928
 20
-110.2463896014595
 30
0.0
 10
145.1558288058062
 20
-109.8351111583073
 30
0.0
 10
145.1382902794437
 20
-109.4234819446285
 30
0.0
  0
POLYLINE
  5
116
330
1F
100
AcDbEntity
  8
LIVELLO_1
 62
     7
100
AcDb2dPolyline
 66
     1
 10
0.0
 20
0.0
 30
0.0
  0
VERTEX
  5
117
330
116
100
AcDbEntity
  8
LIVELLO_1
 62
     7
100
AcDbVertex
100
AcDb2dVertex
 10
145.0142052054433
 20
-109.415414222504
 30
0.0
  0
VERTEX
  5
118
330
116
100
AcDbEntity
  8
LIVELLO_1
 62
     7
100
AcDbVertex
100
AcDb2dVertex
 10
145.0142052054433
 20
-106.7257058198717
 30
0.0
  0
SEQEND
  5
119
330
116
100
AcDbEntity
  8
LIVELLO_1
 62
     7
  0
POLYLINE
  5
11A
330
1F
100
AcDbEntity
  8
LIVELLO_1
 62
     7
100
AcDb2dPolyline
 66
     1
 10
0.0
 20
0.0
 30
0.0
  0
VERTEX
  5
11B
330
11A
100
AcDbEntity
  8
LIVELLO_1
 62
     7
100
AcDbVertex
100
AcDb2dVertex
 10
145.2224752059777
 20
-152.8315977645225
 30
0.0
  0
VERTEX
  5
11C
330
11A
100
AcDbEntity
  8
LIVELLO_1
 62
     7
100
AcDbVertex
100
AcDb2dVertex
 10
145.1574072731754
 20
-152.7664421390918
 30
0.0
  0
SEQEND
  5
11D
330
11A
100
AcDbEntity
  8
LIVELLO_1
 62
     7
  0
POLYLINE
  5
11E
330
1F
100
AcDbEntity
  8
LIVELLO_1
 62
     7
100
AcDb2dPolyline
 66
     1
 10
0.0
 20
0.0
 30
0.0
  0
VERTEX
  5
11F
330
11E
100
AcDbEntity
  8
LIVELLO_1
 62
     7
100
AcDbVertex
100
AcDb2dVertex
 10
66.4098623781289
 20
-120.6999651606808
 30
0.0
  0
VERTEX
  5
120
330
11E
100
AcDbEntity
  8
LIVELLO_1
 62
     7
100
AcDbVertex
100
AcDb2dVertex
 10
66.4098623781289
 20
-119.7314000424271
 30
0.0
  0
SEQEND
  5
121
330
11E
100
AcDbEntity
  8
LIVELLO_1
 62
     7
  0
POLYLINE
  5
122
330
1F
100
AcDbEntity
  8
LIVELLO_1
 62
     7
100
AcDb2dPolyline
 66
     1
 10
0.0
 20
0.0
 30
0.0
  0
VERTEX
  5
123
330
122
100
AcDbEntity
  8
LIVELLO_1
 62
     7
100
AcDbVertex
100
AcDb2dVertex
 10
66.4098623781289
 20
-110.6583695856654
 30
0.0
  0
VERTEX
  5
124
330
122
100
AcDbEntity
  8
LIVELLO_1
 62
     7
100
AcDbVertex
100
AcDb2dVertex
 10
66.4098623781289
 20
-110.3111944563599
 30
0.0
  0
SEQEND
  5
125
330
122
100
AcDbEntity
  8
LIVELLO_1
 62
     7
  0
POLYLINE
  5
126
330
1F
100
AcDbEntity
  8
LIVELLO_1
 62
     7
100
AcDb2dPolyline
 66
     1
 10
0.0
 20
0.0
 30
0.0
  0
VERTEX
  5
127
330
126
100
AcDbEntity
  8
LIVELLO_1
 62
     7
100
AcDbVertex
100
AcDb2dVertex
 10
66.4098623781289
 20
-110.3111944563599
 30
0.0
  0
VERTEX
  5
128
330
126
100
AcDbEntity
  8
LIVELLO_1
 62
     7
100
AcDbVertex
100
AcDb2dVertex
 10
64.91838609643911
 20
-110.3111944563599
 30
0.0
  0
SEQEND
  5
129
330
126
100
AcDbEntity
  8
LIVELLO_1
 62
     7
  0
POLYLINE
  5
12A
330
1F
100
AcDbEntity
  8
LIVELLO_1
 62
     7
100
AcDb2dPolyline
 66
     1
 10
0.0
 20
0.0
 30
0.0
  0
VERTEX
  5
12B
330
12A
100
AcDbEntity
  8
LIVELLO_1
 62
     7
100
AcDbVertex
100
AcDb2dVertex
 10
64.91838609643911
 20
-110.3111944563599
 30
0.0
  0
VERTEX
  5
12C
330
12A
100
AcDbEntity
  8
LIVELLO_1
 62
     7
100
AcDbVertex
100
AcDb2dVertex
 10
64.91838609643911
 20
-120.6999651606808
 30
0.0
  0
SEQEND
  5
12D
330
12A
100
AcDbEntity
  8
LIVELLO_1
 62
     7
  0
POLYLINE
  5
12E
330
1F
100
AcDbEntity
  8
LIVELLO_1
 62
     7
100
AcDb2dPolyline
 66
     1
 10
0.0
 20
0.0
 30
0.0
  0
VERTEX
  5
12F
330
12E
100
AcDbEntity
  8
LIVELLO_1
 62
     7
100
AcDbVertex
100
AcDb2dVertex
 10
64.91838609643911
 20
-120.6999651606808
 30
0.0
  0
VERTEX
  5
130
330
12E
100
AcDbEntity
  8
LIVELLO_1
 62
     7
100
AcDbVertex
100
AcDb2dVertex
 10
66.4098623781289
 20
-120.6999651606808
 30
0.0
  0
SEQEND
  5
131
330
12E
100
AcDbEntity
  8
LIVELLO_1
 62
     7
  0
POLYLINE
  5
132
330
1F
100
AcDbEntity
  8
LIVELLO_1
 62
     7
100
AcDb2dPolyline
 66
     1
 10
0.0
 20
0.0
 30
0.0
  0
VERTEX
  5
133
330
132
100
AcDbEntity
  8
LIVELLO_1
 62
     7
100
AcDbVertex
100
AcDb2dVertex
 10
143.665930991492
 20
-152.3448159653865
 30
0.0
  0
VERTEX
  5
134
330
132
100
AcDbEntity
  8
LIVELLO_1
 62
     7
100
AcDbVertex
100
AcDb2dVertex
 10
143.665930991492
 20
-152.7664421390918
 30
0.0
  0
SEQEND
  5
135
330
132
100
AcDbEntity
  8
LIVELLO_1
 62
     7
  0
POLYLINE
  5
136
330
1F
100
AcDbEntity
  8
LIVELLO_1
 62
     7
100
AcDb2dPolyline
 66
     1
 10
0.0
 20
0.0
 30
0.0
  0
VERTEX
  5
137
330
136
100
AcDbEntity
  8
LIVELLO_1
 62
     7
100
AcDbVertex
100
AcDb2dVertex
 10
143.665930991492
 20
-152.7664421390918
 30
0.0
  0
VERTEX
  5
138
330
136
100
AcDbEntity
  8
LIVELLO_1
 62
     7
100
AcDbVertex
100
AcDb2dVertex
 10
145.1574072731754
 20
-152.7664421390918
 30
0.0
  0
SEQEND
  5
139
330
136
100
AcDbEntity
  8
LIVELLO_1
 62
     7
  0
POLYLINE
  5
13A
330
1F
100
AcDbEntity
  8
LIVELLO_1
 62
     7
100
AcDb2dPolyline
 66
     1
 10
0.0
 20
0.0
 30
0.0
  0
VERTEX
  5
13B
330
13A
100
AcDbEntity
  8
LIVELLO_1
 62
     7
100
AcDbVertex
100
AcDb2dVertex
 10
66.6918818820037
 20
-126.3186951581332
 30
0.0
  0
VERTEX
  5
13C
330
13A
100
AcDbEntity
  8
LIVELLO_1
 62
     7
100
AcDbVertex
100
AcDb2dVertex
 10
66.6918818820037
 20
-124.827218876444
 30
0.0
  0
SEQEND
  5
13D
330
13A
100
AcDbEntity
  8
LIVELLO_1
 62
     7
  0
POLYLINE
  5
13E
330
1F
100
AcDbEntity
  8
LIVELLO_1
 62
     7
100
AcDb2dPolyline
 66
     1
 10
0.0
 20
0.0
 30
0.0
  0
VERTEX
  5
13F
330
13E
100
AcDbEntity
  8
LIVELLO_1
 62
     7
100
AcDbVertex
100
AcDb2dVertex
 10
66.75694981480022
 20
-124.827218876444
 30
0.0
  0
VERTEX
  5
140
330
13E
100
AcDbEntity
  8
LIVELLO_1
 62
     7
100
AcDbVertex
100
AcDb2dVertex
 10
66.75694981480022
 20
-119.7314000424271
 30
0.0
  0
SEQEND
  5
141
330
13E
100
AcDbEntity
  8
LIVELLO_1
 62
     7
  0
POLYLINE
  5
142
330
1F
100
AcDbEntity
  8
LIVELLO_1
 62
     7
100
AcDb2dPolyline
 66
     1
 10
0.0
 20
0.0
 30
0.0
  0
VERTEX
  5
143
330
142
100
AcDbEntity
  8
LIVELLO_1
 62
     7
100
AcDbVertex
100
AcDb2dVertex
 10
66.75694981480022
 20
-110.6583695856654
 30
0.0
  0
VERTEX
  5
144
330
142
100
AcDbEntity
  8
LIVELLO_1
 62
     7
100
AcDbVertex
100
AcDb2dVertex
 10
66.4098623781289
 20
-110.3111944563599
 30
0.0
  0
SEQEND
  5
145
330
142
100
AcDbEntity
  8
LIVELLO_1
 62
     7
  0
POLYLINE
  5
146
330
1F
100
AcDbEntity
  8
LIVELLO_1
 62
     7
100
AcDb2dPolyline
 66
     1
 10
0.0
 20
0.0
 30
0.0
  0
VERTEX
  5
147
330
146
100
AcDbEntity
  8
LIVELLO_1
 62
     7
100
AcDbVertex
100
AcDb2dVertex
 10
66.3447067526982
 20
-187.6324186951537
 30
0.0
  0
VERTEX
  5
148
330
146
100
AcDbEntity
  8
LIVELLO_1
 62
     7
100
AcDbVertex
100
AcDb2dVertex
 10
66.75694981480022
 20
-187.2202633256802
 30
0.0
  0
SEQEND
  5
149
330
146
100
AcDbEntity
  8
LIVELLO_1
 62
     7
  0
POLYLINE
  5
14A
330
1F
100
AcDbEntity
  8
LIVELLO_1
 62
     7
100
AcDb2dPolyline
 66
     1
 10
0.0
 20
0.0
 30
0.0
  0
VERTEX
  5
14B
330
14A
100
AcDbEntity
  8
LIVELLO_1
 62
     7
100
AcDbVertex
100
AcDb2dVertex
 10
66.75694981480022
 20
-187.2202633256802
 30
0.0
  0
VERTEX
  5
14C
330
14A
100
AcDbEntity
  8
LIVELLO_1
 62
     7
100
AcDbVertex
100
AcDb2dVertex
 10
66.75694981480022
 20
-126.3186951581332
 30
0.0
  0
SEQEND
  5
14D
330
14A
100
AcDbEntity
  8
LIVELLO_1
 62
     7
  0
POLYLINE
  5
14E
330
1F
100
AcDbEntity
  8
LIVELLO_1
 62
     7
100
AcDb2dPolyline
 66
     1
 10
0.0
 20
0.0
 30
0.0
  0
VERTEX
  5
14F
330
14E
100
AcDbEntity
  8
LIVELLO_1
 62
     7
100
AcDbVertex
100
AcDb2dVertex
 10
73.15491653844455
 20
-110.6583695856654
 30
0.0
  0
VERTEX
  5
150
330
14E
100
AcDbEntity
  8
LIVELLO_1
 62
     7
100
AcDbVertex
100
AcDb2dVertex
 10
73.15491653844455
 20
-110.5932139602353
 30
0.0
  0
SEQEND
  5
151
330
14E
100
AcDbEntity
  8
LIVELLO_1
 62
     7
  0
POLYLINE
  5
152
330
1F
100
AcDbEntity
  8
LIVELLO_1
 62
     7
100
AcDb2dPolyline
 66
     1
 10
0.0
 20
0.0
 30
0.0
  0
VERTEX
  5
153
330
152
100
AcDbEntity
  8
LIVELLO_1
 62
     7
100
AcDbVertex
100
AcDb2dVertex
 10
73.15491653844455
 20
-110.5932139602353
 30
0.0
  0
VERTEX
  5
154
330
152
100
AcDbEntity
  8
LIVELLO_1
 62
     7
100
AcDbVertex
100
AcDb2dVertex
 10
71.79357612234747
 20
-110.5932139602353
 30
0.0
  0
SEQEND
  5
155
330
152
100
AcDbEntity
  8
LIVELLO_1
 62
     7
  0
POLYLINE
  5
156
330
1F
100
AcDbEntity
  8
LIVELLO_1
 62
     7
100
AcDb2dPolyline
 66
     1
 10
0.0
 20
0.0
 30
0.0
  0
VERTEX
  5
157
330
156
100
AcDbEntity
  8
LIVELLO_1
 62
     7
100
AcDbVertex
100
AcDb2dVertex
 10
71.79357612234747
 20
-110.5932139602353
 30
0.0
  0
VERTEX
  5
158
330
156
100
AcDbEntity
  8
LIVELLO_1
 62
     7
100
AcDbVertex
100
AcDb2dVertex
 10
71.79357612234747
 20
-110.6583695856654
 30
0.0
  0
SEQEND
  5
159
330
156
100
AcDbEntity
  8
LIVELLO_1
 62
     7
  0
POLYLINE
  5
15A
330
1F
100
AcDbEntity
  8
LIVELLO_1
 62
     7
100
AcDb2dPolyline
 66
     1
 10
0.0
 20
0.0
 30
0.0
  0
VERTEX
  5
15B
330
15A
100
AcDbEntity
  8
LIVELLO_1
 62
     7
100
AcDbVertex
100
AcDb2dVertex
 10
71.79357612234747
 20
-185.480178432838
 30
0.0
  0
VERTEX
  5
15C
330
15A
100
AcDbEntity
  8
LIVELLO_1
 62
     7
100
AcDbVertex
100
AcDb2dVertex
 10
71.79357612234747
 20
-187.285331258476
 30
0.0
  0
SEQEND
  5
15D
330
15A
100
AcDbEntity
  8
LIVELLO_1
 62
     7
  0
POLYLINE
  5
15E
330
1F
100
AcDbEntity
  8
LIVELLO_1
 62
     7
100
AcDb2dPolyline
 66
     1
 10
0.0
 20
0.0
 30
0.0
  0
VERTEX
  5
15F
330
15E
100
AcDbEntity
  8
LIVELLO_1
 62
     7
100
AcDbVertex
100
AcDb2dVertex
 10
71.79357612234747
 20
-187.285331258476
 30
0.0
  0
VERTEX
  5
160
330
15E
100
AcDbEntity
  8
LIVELLO_1
 62
     7
100
AcDbVertex
100
AcDb2dVertex
 10
73.15491653844455
 20
-187.285331258476
 30
0.0
  0
SEQEND
  5
161
330
15E
100
AcDbEntity
  8
LIVELLO_1
 62
     7
  0
POLYLINE
  5
162
330
1F
100
AcDbEntity
  8
LIVELLO_1
 62
     7
100
AcDb2dPolyline
 66
     1
 10
0.0
 20
0.0
 30
0.0
  0
VERTEX
  5
163
330
162
100
AcDbEntity
  8
LIVELLO_1
 62
     7
100
AcDbVertex
100
AcDb2dVertex
 10
73.15491653844455
 20
-187.285331258476
 30
0.0
  0
VERTEX
  5
164
330
162
100
AcDbEntity
  8
LIVELLO_1
 62
     7
100
AcDbVertex
100
AcDb2dVertex
 10
73.15491653844455
 20
-185.480178432838
 30
0.0
  0
SEQEND
  5
165
330
162
100
AcDbEntity
  8
LIVELLO_1
 62
     7
  0
POLYLINE
  5
166
330
1F
100
AcDbEntity
  8
LIVELLO_1
 62
     7
100
AcDb2dPolyline
 66
     1
 10
0.0
 20
0.0
 30
0.0
  0
VERTEX
  5
167
330
166
100
AcDbEntity
  8
LIVELLO_1
 62
     7
100
AcDbVertex
100
AcDb2dVertex
 10
134.4351414901146
 20
-152.3448159653865
 30
0.0
  0
VERTEX
  5
168
330
166
100
AcDbEntity
  8
LIVELLO_1
 62
     7
100
AcDbVertex
100
AcDb2dVertex
 10
134.4351414901146
 20
-152.484422635217
 30
0.0
  0
SEQEND
  5
169
330
166
100
AcDbEntity
  8
LIVELLO_1
 62
     7
  0
POLYLINE
  5
16A
330
1F
100
AcDbEntity
  8
LIVELLO_1
 62
     7
100
AcDb2dPolyline
 66
     1
 10
0.0
 20
0.0
 30
0.0
  0
VERTEX
  5
16B
330
16A
100
AcDbEntity
  8
LIVELLO_1
 62
     7
100
AcDbVertex
100
AcDb2dVertex
 10
134.4351414901146
 20
-152.484422635217
 30
0.0
  0
VERTEX
  5
16C
330
16A
100
AcDbEntity
  8
LIVELLO_1
 62
     7
100
AcDbVertex
100
AcDb2dVertex
 10
135.7963942135771
 20
-152.484422635217
 30
0.0
  0
SEQEND
  5
16D
330
16A
100
AcDbEntity
  8
LIVELLO_1
 62
     7
  0
POLYLINE
  5
16E
330
1F
100
AcDbEntity
  8
LIVELLO_1
 62
     7
100
AcDb2dPolyline
 66
     1
 10
0.0
 20
0.0
 30
0.0
  0
VERTEX
  5
16F
330
16E
100
AcDbEntity
  8
LIVELLO_1
 62
     7
100
AcDbVertex
100
AcDb2dVertex
 10
135.7963942135771
 20
-152.484422635217
 30
0.0
  0
VERTEX
  5
170
330
16E
100
AcDbEntity
  8
LIVELLO_1
 62
     7
100
AcDbVertex
100
AcDb2dVertex
 10
135.7963942135771
 20
-152.3448159653865
 30
0.0
  0
SEQEND
  5
171
330
16E
100
AcDbEntity
  8
LIVELLO_1
 62
     7
  0
POLYLINE
  5
172
330
1F
100
AcDbEntity
  8
LIVELLO_1
 62
     7
100
AcDb2dPolyline
 66
     1
 10
0.0
 20
0.0
 30
0.0
  0
VERTEX
  5
173
330
172
100
AcDbEntity
  8
LIVELLO_1
 62
     7
100
AcDbVertex
100
AcDb2dVertex
 10
67.502687955648
 20
-124.827218876444
 30
0.0
  0
VERTEX
  5
174
330
172
100
AcDbEntity
  8
LIVELLO_1
 62
     7
100
AcDbVertex
100
AcDb2dVertex
 10
66.6918818820037
 20
-124.827218876444
 30
0.0
  0
SEQEND
  5
175
330
172
100
AcDbEntity
  8
LIVELLO_1
 62
     7
  0
POLYLINE
  5
176
330
1F
100
AcDbEntity
  8
LIVELLO_1
 62
     7
100
AcDb2dPolyline
 66
     1
 10
0.0
 20
0.0
 30
0.0
  0
VERTEX
  5
177
330
176
100
AcDbEntity
  8
LIVELLO_1
 62
     7
100
AcDbVertex
100
AcDb2dVertex
 10
66.6918818820037
 20
-126.3186951581332
 30
0.0
  0
VERTEX
  5
178
330
176
100
AcDbEntity
  8
LIVELLO_1
 62
     7
100
AcDbVertex
100
AcDb2dVertex
 10
67.502687955648
 20
-126.3186951581332
 30
0.0
  0
SEQEND
  5
179
330
176
100
AcDbEntity
  8
LIVELLO_1
 62
     7
  0
POLYLINE
  5
17A
330
1F
100
AcDbEntity
  8
LIVELLO_1
 62
     7
100
AcDb2dPolyline
 66
     1
 10
0.0
 20
0.0
 30
0.0
  0
VERTEX
  5
17B
330
17A
100
AcDbEntity
  8
LIVELLO_1
 62
     7
100
AcDbVertex
100
AcDb2dVertex
 10
121.1948694774866
 20
-152.4193547024205
 30
0.0
  0
VERTEX
  5
17C
330
17A
100
AcDbEntity
  8
LIVELLO_1
 62
     7
100
AcDbVertex
100
AcDb2dVertex
 10
134.3700735573181
 20
-152.4193547024205
 30
0.0
  0
SEQEND
  5
17D
330
17A
100
AcDbEntity
  8
LIVELLO_1
 62
     7
  0
POLYLINE
  5
17E
330
1F
100
AcDbEntity
  8
LIVELLO_1
 62
     7
100
AcDb2dPolyline
 66
     1
 10
0.0
 20
0.0
 30
0.0
  0
VERTEX
  5
17F
330
17E
100
AcDbEntity
  8
LIVELLO_1
 62
     7
100
AcDbVertex
100
AcDb2dVertex
 10
134.3700735573181
 20
-152.4193547024205
 30
0.0
  0
VERTEX
  5
180
330
17E
100
AcDbEntity
  8
LIVELLO_1
 62
     7
100
AcDbVertex
100
AcDb2dVertex
 10
134.3700735573181
 20
-152.3448159653865
 30
0.0
  0
SEQEND
  5
181
330
17E
100
AcDbEntity
  8
LIVELLO_1
 62
     7
  0
POLYLINE
  5
182
330
1F
100
AcDbEntity
  8
LIVELLO_1
 62
     7
100
AcDb2dPolyline
 66
     1
 10
0.0
 20
0.0
 30
0.0
  0
VERTEX
  5
183
330
182
100
AcDbEntity
  8
LIVELLO_1
 62
     7
100
AcDbVertex
100
AcDb2dVertex
 10
135.8614621463737
 20
-152.3448159653865
 30
0.0
  0
VERTEX
  5
184
330
182
100
AcDbEntity
  8
LIVELLO_1
 62
     7
100
AcDbVertex
100
AcDb2dVertex
 10
135.8614621463737
 20
-152.4193547024205
 30
0.0
  0
SEQEND
  5
185
330
182
100
AcDbEntity
  8
LIVELLO_1
 62
     7
  0
POLYLINE
  5
186
330
1F
100
AcDbEntity
  8
LIVELLO_1
 62
     7
100
AcDb2dPolyline
 66
     1
 10
0.0
 20
0.0
 30
0.0
  0
VERTEX
  5
187
330
186
100
AcDbEntity
  8
LIVELLO_1
 62
     7
100
AcDbVertex
100
AcDb2dVertex
 10
135.8614621463737
 20
-152.4193547024205
 30
0.0
  0
VERTEX
  5
188
330
186
100
AcDbEntity
  8
LIVELLO_1
 62
     7
100
AcDbVertex
100
AcDb2dVertex
 10
143.3188435548143
 20
-152.4193547024205
 30
0.0
  0
SEQEND
  5
189
330
186
100
AcDbEntity
  8
LIVELLO_1
 62
     7
  0
POLYLINE
  5
18A
330
1F
100
AcDbEntity
  8
LIVELLO_1
 62
     7
100
AcDb2dPolyline
 66
     1
 10
0.0
 20
0.0
 30
0.0
  0
VERTEX
  5
18B
330
18A
100
AcDbEntity
  8
LIVELLO_1
 62
     7
100
AcDbVertex
100
AcDb2dVertex
 10
143.3188435548143
 20
-152.4193547024205
 30
0.0
  0
VERTEX
  5
18C
330
18A
100
AcDbEntity
  8
LIVELLO_1
 62
     7
100
AcDbVertex
100
AcDb2dVertex
 10
143.3188435548143
 20
-152.3448159653865
 30
0.0
  0
SEQEND
  5
18D
330
18A
100
AcDbEntity
  8
LIVELLO_1
 62
     7
  0
POLYLINE
  5
18E
330
1F
100
AcDbEntity
  8
LIVELLO_1
 62
     7
100
AcDb2dPolyline
 66
     1
 10
0.0
 20
0.0
 30
0.0
  0
VERTEX
  5
18F
330
18E
100
AcDbEntity
  8
LIVELLO_1
 62
     7
100
AcDbVertex
100
AcDb2dVertex
 10
66.75694981480022
 20
-187.2202633256802
 30
0.0
  0
VERTEX
  5
190
330
18E
100
AcDbEntity
  8
LIVELLO_1
 62
     7
100
AcDbVertex
100
AcDb2dVertex
 10
71.72850818955128
 20
-187.2202633256802
 30
0.0
  0
SEQEND
  5
191
330
18E
100
AcDbEntity
  8
LIVELLO_1
 62
     7
  0
POLYLINE
  5
192
330
1F
100
AcDbEntity
  8
LIVELLO_1
 62
     7
100
AcDb2dPolyline
 66
     1
 10
0.0
 20
0.0
 30
0.0
  0
VERTEX
  5
193
330
192
100
AcDbEntity
  8
LIVELLO_1
 62
     7
100
AcDbVertex
100
AcDb2dVertex
 10
71.72850818955128
 20
-187.2202633256802
 30
0.0
  0
VERTEX
  5
194
330
192
100
AcDbEntity
  8
LIVELLO_1
 62
     7
100
AcDbVertex
100
AcDb2dVertex
 10
71.72850818955128
 20
-185.480178432838
 30
0.0
  0
SEQEND
  5
195
330
192
100
AcDbEntity
  8
LIVELLO_1
 62
     7
  0
POLYLINE
  5
196
330
1F
100
AcDbEntity
  8
LIVELLO_1
 62
     7
100
AcDb2dPolyline
 66
     1
 10
0.0
 20
0.0
 30
0.0
  0
VERTEX
  5
197
330
196
100
AcDbEntity
  8
LIVELLO_1
 62
     7
100
AcDbVertex
100
AcDb2dVertex
 10
73.21998447124075
 20
-185.480178432838
 30
0.0
  0
VERTEX
  5
198
330
196
100
AcDbEntity
  8
LIVELLO_1
 62
     7
100
AcDbVertex
100
AcDb2dVertex
 10
73.21998447124075
 20
-187.2202633256802
 30
0.0
  0
SEQEND
  5
199
330
196
100
AcDbEntity
  8
LIVELLO_1
 62
     7
  0
POLYLINE
  5
19A
330
1F
100
AcDbEntity
  8
LIVELLO_1
 62
     7
100
AcDb2dPolyline
 66
     1
 10
0.0
 20
0.0
 30
0.0
  0
VERTEX
  5
19B
330
19A
100
AcDbEntity
  8
LIVELLO_1
 62
     7
100
AcDbVertex
100
AcDb2dVertex
 10
73.21998447124075
 20
-187.2202633256802
 30
0.0
  0
VERTEX
  5
19C
330
19A
100
AcDbEntity
  8
LIVELLO_1
 62
     7
100
AcDbVertex
100
AcDb2dVertex
 10
77.43703544197203
 20
-187.2202633256802
 30
0.0
  0
SEQEND
  5
19D
330
19A
100
AcDbEntity
  8
LIVELLO_1
 62
     7
  0
SPLINE
  5
19E
330
1F
100
AcDbEntity
  8
LIVELLO_1
 62
     7
100
AcDbSpline
210
0.0
220
0.0
230
1.0
 70
     8
 71
     3
 72
     8
 73
     4
 74
     0
 42
0.0000000001
 43
0.0000000001
 12
1.0
 22
0.0
 32
0.0
 13
1.0
 23
0.0
 33
0.0
 40
0.0
 40
0.0
 40
0.0
 40
0.0
 40
1.0
 40
1.0
 40
1.0
 40
1.0
 10
120.9381054515692
 20
-152.4273347319178
 30
0.0
 10
121.0236934602105
 20
-152.4218977887452
 30
0.0
 10
121.1091937762176
 20
-152.4193547024205
 30
0.0
 10
121.1948694774866
 20
-152.4193547024205
 30
0.0
  0
POLYLINE
  5
19F
330
1F
100
AcDbEntity
  8
LIVELLO_1
 62
     7
100
AcDb2dPolyline
 66
     1
 10
0.0
 20
0.0
 30
0.0
  0
VERTEX
  5
1A0
330
19F
100
AcDbEntity
  8
LIVELLO_1
 62
     7
100
AcDbVertex
100
AcDb2dVertex
 10
143.3188435548143
 20
-152.4193547024205
 30
0.0
  0
VERTEX
  5
1A1
330
19F
100
AcDbEntity
  8
LIVELLO_1
 62
     7
100
AcDbVertex
100
AcDb2dVertex
 10
143.665930991492
 20
-152.7664421390918
 30
0.0
  0
SEQEND
  5
1A2
330
19F
100
AcDbEntity
  8
LIVELLO_1
 62
     7
  0
POLYLINE
  5
1A3
330
1F
100
AcDbEntity
  8
LIVELLO_1
 62
     7
100
AcDb2dPolyline
 66
     1
 10
0.0
 20
0.0
 30
0.0
  0
VERTEX
  5
1A4
330
1A3
100
AcDbEntity
  8
LIVELLO_1
 62
     7
100
AcDbVertex
100
AcDb2dVertex
 10
101.9964969823361
 20
-110.454396524092
 30
0.0
  0
VERTEX
  5
1A5
330
1A3
100
AcDbEntity
  8
LIVELLO_1
 62
     7
100
AcDbVertex
100
AcDb2dVertex
 10
101.5577707454251
 20
-110.454396524092
 30
0.0
  0
SEQEND
  5
1A6
330
1A3
100
AcDbEntity
  8
LIVELLO_1
 62
     7
  0
POLYLINE
  5
1A7
330
1F
100
AcDbEntity
  8
LIVELLO_1
 62
     7
100
AcDb2dPolyline
 66
     1
 10
0.0
 20
0.0
 30
0.0
  0
VERTEX
  5
1A8
330
1A7
100
AcDbEntity
  8
LIVELLO_1
 62
     7
100
AcDbVertex
100
AcDb2dVertex
 10
101.5577707454251
 20
-110.454396524092
 30
0.0
  0
VERTEX
  5
1A9
330
1A7
100
AcDbEntity
  8
LIVELLO_1
 62
     7
100
AcDbVertex
100
AcDb2dVertex
 10
101.5577707454251
 20
-110.246126523564
 30
0.0
  0
SEQEND
  5
1AA
330
1A7
100
AcDbEntity
  8
LIVELLO_1
 62
     7
  0
POLYLINE
  5
1AB
330
1F
100
AcDbEntity
  8
LIVELLO_1
 62
     7
100
AcDb2dPolyline
 66
     1
 10
0.0
 20
0.0
 30
0.0
  0
VERTEX
  5
1AC
330
1AB
100
AcDbEntity
  8
LIVELLO_1
 62
     7
100
AcDbVertex
100
AcDb2dVertex
 10
89.32780554379768
 20
-110.3806470207484
 30
0.0
  0
VERTEX
  5
1AD
330
1AB
100
AcDbEntity
  8
LIVELLO_1
 62
     7
100
AcDbVertex
100
AcDb2dVertex
 10
89.32780554379768
 20
-110.246126523564
 30
0.0
  0
SEQEND
  5
1AE
330
1AB
100
AcDbEntity
  8
LIVELLO_1
 62
     7
  0
POLYLINE
  5
1AF
330
1F
100
AcDbEntity
  8
LIVELLO_1
 62
     7
100
AcDb2dPolyline
 66
     1
 10
0.0
 20
0.0
 30
0.0
  0
VERTEX
  5
1B0
330
1AF
100
AcDbEntity
  8
LIVELLO_1
 62
     7
100
AcDbVertex
100
AcDb2dVertex
 10
64.85331816364322
 20
-110.246126523564
 30
0.0
  0
VERTEX
  5
1B1
330
1AF
100
AcDbEntity
  8
LIVELLO_1
 62
     7
100
AcDbVertex
100
AcDb2dVertex
 10
64.91838609643911
 20
-110.3111944563599
 30
0.0
  0
SEQEND
  5
1B2
330
1AF
100
AcDbEntity
  8
LIVELLO_1
 62
     7
  0
POLYLINE
  5
1B3
330
1F
100
AcDbEntity
  8
LIVELLO_1
 62
     7
100
AcDb2dPolyline
 66
     1
 10
0.0
 20
0.0
 30
0.0
  0
VERTEX
  5
1B4
330
1B3
100
AcDbEntity
  8
LIVELLO_1
 62
     7
100
AcDbVertex
100
AcDb2dVertex
 10
71.72850818955128
 20
-110.6583695856654
 30
0.0
  0
VERTEX
  5
1B5
330
1B3
100
AcDbEntity
  8
LIVELLO_1
 62
     7
100
AcDbVertex
100
AcDb2dVertex
 10
71.79357612234747
 20
-110.5932139602353
 30
0.0
  0
SEQEND
  5
1B6
330
1B3
100
AcDbEntity
  8
LIVELLO_1
 62
     7
  0
POLYLINE
  5
1B7
330
1F
100
AcDbEntity
  8
LIVELLO_1
 62
     7
100
AcDb2dPolyline
 66
     1
 10
0.0
 20
0.0
 30
0.0
  0
VERTEX
  5
1B8
330
1B7
100
AcDbEntity
  8
LIVELLO_1
 62
     7
100
AcDbVertex
100
AcDb2dVertex
 10
73.15491653844455
 20
-110.5932139602353
 30
0.0
  0
VERTEX
  5
1B9
330
1B7
100
AcDbEntity
  8
LIVELLO_1
 62
     7
100
AcDbVertex
100
AcDb2dVertex
 10
73.21998447124075
 20
-110.6583695856654
 30
0.0
  0
SEQEND
  5
1BA
330
1B7
100
AcDbEntity
  8
LIVELLO_1
 62
     7
  0
POLYLINE
  5
1BB
330
1F
100
AcDbEntity
  8
LIVELLO_1
 62
     7
100
AcDb2dPolyline
 66
     1
 10
0.0
 20
0.0
 30
0.0
  0
VERTEX
  5
1BC
330
1BB
100
AcDbEntity
  8
LIVELLO_1
 62
     7
100
AcDbVertex
100
AcDb2dVertex
 10
64.85331816364322
 20
-120.7650330934773
 30
0.0
  0
VERTEX
  5
1BD
330
1BB
100
AcDbEntity
  8
LIVELLO_1
 62
     7
100
AcDbVertex
100
AcDb2dVertex
 10
64.91838609643911
 20
-120.6999651606808
 30
0.0
  0
SEQEND
  5
1BE
330
1BB
100
AcDbEntity
  8
LIVELLO_1
 62
     7
  0
POLYLINE
  5
1BF
330
1F
100
AcDbEntity
  8
LIVELLO_1
 62
     7
100
AcDb2dPolyline
 66
     1
 10
0.0
 20
0.0
 30
0.0
  0
VERTEX
  5
1C0
330
1BF
100
AcDbEntity
  8
LIVELLO_1
 62
     7
100
AcDbVertex
100
AcDb2dVertex
 10
66.4098623781289
 20
-120.6999651606808
 30
0.0
  0
VERTEX
  5
1C1
330
1BF
100
AcDbEntity
  8
LIVELLO_1
 62
     7
100
AcDbVertex
100
AcDb2dVertex
 10
66.3447067526982
 20
-120.7650330934773
 30
0.0
  0
SEQEND
  5
1C2
330
1BF
100
AcDbEntity
  8
LIVELLO_1
 62
     7
  0
POLYLINE
  5
1C3
330
1F
100
AcDbEntity
  8
LIVELLO_1
 62
     7
100
AcDb2dPolyline
 66
     1
 10
0.0
 20
0.0
 30
0.0
  0
VERTEX
  5
1C4
330
1C3
100
AcDbEntity
  8
LIVELLO_1
 62
     7
100
AcDbVertex
100
AcDb2dVertex
 10
89.32780554379768
 20
-110.3806470207484
 30
0.0
  0
VERTEX
  5
1C5
330
1C3
100
AcDbEntity
  8
LIVELLO_1
 62
     7
100
AcDbVertex
100
AcDb2dVertex
 10
89.75039633644633
 20
-110.3806470207484
 30
0.0
  0
SEQEND
  5
1C6
330
1C3
100
AcDbEntity
  8
LIVELLO_1
 62
     7
  0
POLYLINE
  5
1C7
330
1F
100
AcDbEntity
  8
LIVELLO_1
 62
     7
100
AcDb2dPolyline
 66
     1
 10
0.0
 20
0.0
 30
0.0
  0
VERTEX
  5
1C8
330
1C7
100
AcDbEntity
  8
LIVELLO_1
 62
     7
100
AcDbVertex
100
AcDb2dVertex
 10
95.96482238172877
 20
-110.3806470207484
 30
0.0
  0
VERTEX
  5
1C9
330
1C7
100
AcDbEntity
  8
LIVELLO_1
 62
     7
100
AcDbVertex
100
AcDb2dVertex
 10
96.5365783410738
 20
-110.3806470207484
 30
0.0
  0
SEQEND
  5
1CA
330
1C7
100
AcDbEntity
  8
LIVELLO_1
 62
     7
  0
POLYLINE
  5
1CB
330
1F
100
AcDbEntity
  8
LIVELLO_1
 62
     7
100
AcDb2dPolyline
 66
     1
 10
0.0
 20
0.0
 30
0.0
  0
VERTEX
  5
1CC
330
1CB
100
AcDbEntity
  8
LIVELLO_1
 62
     7
100
AcDbVertex
100
AcDb2dVertex
 10
83.5359702911642
 20
-188.4631309962106
 30
0.0
  0
VERTEX
  5
1CD
330
1CB
100
AcDbEntity
  8
LIVELLO_1
 62
     7
100
AcDbVertex
100
AcDb2dVertex
 10
83.5359702911642
 20
-187.4978981979656
 30
0.0
  0
SEQEND
  5
1CE
330
1CB
100
AcDbEntity
  8
LIVELLO_1
 62
     7
  0
POLYLINE
  5
1CF
330
1F
100
AcDbEntity
  8
LIVELLO_1
 62
     7
100
AcDb2dPolyline
 66
     1
 10
0.0
 20
0.0
 30
0.0
  0
VERTEX
  5
1D0
330
1CF
100
AcDbEntity
  8
LIVELLO_1
 62
     7
100
AcDbVertex
100
AcDb2dVertex
 10
83.5359702911642
 20
-187.4978981979656
 30
0.0
  0
VERTEX
  5
1D1
330
1CF
100
AcDbEntity
  8
LIVELLO_1
 62
     7
100
AcDbVertex
100
AcDb2dVertex
 10
82.90581103904088
 20
-187.4978981979656
 30
0.0
  0
SEQEND
  5
1D2
330
1CF
100
AcDbEntity
  8
LIVELLO_1
 62
     7
  0
POLYLINE
  5
1D3
330
1F
100
AcDbEntity
  8
LIVELLO_1
 62
     7
100
AcDb2dPolyline
 66
     1
 10
0.0
 20
0.0
 30
0.0
  0
VERTEX
  5
1D4
330
1D3
100
AcDbEntity
  8
LIVELLO_1
 62
     7
100
AcDbVertex
100
AcDb2dVertex
 10
77.43703544197203
 20
-187.4978981979656
 30
0.0
  0
VERTEX
  5
1D5
330
1D3
100
AcDbEntity
  8
LIVELLO_1
 62
     7
100
AcDbVertex
100
AcDb2dVertex
 10
76.57580610504039
 20
-187.4978981979656
 30
0.0
  0
SEQEND
  5
1D6
330
1D3
100
AcDbEntity
  8
LIVELLO_1
 62
     7
  0
POLYLINE
  5
1D7
330
1F
100
AcDbEntity
  8
LIVELLO_1
 62
     7
100
AcDb2dPolyline
 66
     1
 10
0.0
 20
0.0
 30
0.0
  0
VERTEX
  5
1D8
330
1D7
100
AcDbEntity
  8
LIVELLO_1
 62
     7
100
AcDbVertex
100
AcDb2dVertex
 10
76.58825845875424
 20
-188.4631309962106
 30
0.0
  0
VERTEX
  5
1D9
330
1D7
100
AcDbEntity
  8
LIVELLO_1
 62
     7
100
AcDbVertex
100
AcDb2dVertex
 10
77.43703544197203
 20
-188.4631309962106
 30
0.0
  0
SEQEND
  5
1DA
330
1D7
100
AcDbEntity
  8
LIVELLO_1
 62
     7
  0
POLYLINE
  5
1DB
330
1F
100
AcDbEntity
  8
LIVELLO_1
 62
     7
100
AcDb2dPolyline
 66
     1
 10
0.0
 20
0.0
 30
0.0
  0
VERTEX
  5
1DC
330
1DB
100
AcDbEntity
  8
LIVELLO_1
 62
     7
100
AcDbVertex
100
AcDb2dVertex
 10
82.90581103904088
 20
-188.4631309962106
 30
0.0
  0
VERTEX
  5
1DD
330
1DB
100
AcDbEntity
  8
LIVELLO_1
 62
     7
100
AcDbVertex
100
AcDb2dVertex
 10
83.5359702911642
 20
-188.4631309962106
 30
0.0
  0
SEQEND
  5
1DE
330
1DB
100
AcDbEntity
  8
LIVELLO_1
 62
     7
  0
POLYLINE
  5
1DF
330
1F
100
AcDbEntity
  8
LIVELLO_1
 62
     7
100
AcDb2dPolyline
 66
     1
 10
0.0
 20
0.0
 30
0.0
  0
VERTEX
  5
1E0
330
1DF
100
AcDbEntity
  8
LIVELLO_1
 62
     7
100
AcDbVertex
100
AcDb2dVertex
 10
109.1394126131344
 20
-187.4978981979656
 30
0.0
  0
VERTEX
  5
1E1
330
1DF
100
AcDbEntity
  8
LIVELLO_1
 62
     7
100
AcDbVertex
100
AcDb2dVertex
 10
109.1394126131344
 20
-188.4631309962106
 30
0.0
  0
SEQEND
  5
1E2
330
1DF
100
AcDbEntity
  8
LIVELLO_1
 62
     7
  0
POLYLINE
  5
1E3
330
1F
100
AcDbEntity
  8
LIVELLO_1
 62
     7
100
AcDb2dPolyline
 66
     1
 10
0.0
 20
0.0
 30
0.0
  0
VERTEX
  5
1E4
330
1E3
100
AcDbEntity
  8
LIVELLO_1
 62
     7
100
AcDbVertex
100
AcDb2dVertex
 10
109.1394126131344
 20
-188.4631309962106
 30
0.0
  0
VERTEX
  5
1E5
330
1E3
100
AcDbEntity
  8
LIVELLO_1
 62
     7
100
AcDbVertex
100
AcDb2dVertex
 10
110.1337593651409
 20
-188.4631309962106
 30
0.0
  0
SEQEND
  5
1E6
330
1E3
100
AcDbEntity
  8
LIVELLO_1
 62
     7
  0
POLYLINE
  5
1E7
330
1F
100
AcDbEntity
  8
LIVELLO_1
 62
     7
100
AcDb2dPolyline
 66
     1
 10
0.0
 20
0.0
 30
0.0
  0
VERTEX
  5
1E8
330
1E7
100
AcDbEntity
  8
LIVELLO_1
 62
     7
100
AcDbVertex
100
AcDb2dVertex
 10
115.1053177398923
 20
-188.4631309962106
 30
0.0
  0
VERTEX
  5
1E9
330
1E7
100
AcDbEntity
  8
LIVELLO_1
 62
     7
100
AcDbVertex
100
AcDb2dVertex
 10
115.9621624452285
 20
-188.4631309962106
 30
0.0
  0
SEQEND
  5
1EA
330
1E7
100
AcDbEntity
  8
LIVELLO_1
 62
     7
  0
POLYLINE
  5
1EB
330
1F
100
AcDbEntity
  8
LIVELLO_1
 62
     7
100
AcDb2dPolyline
 66
     1
 10
0.0
 20
0.0
 30
0.0
  0
VERTEX
  5
1EC
330
1EB
100
AcDbEntity
  8
LIVELLO_1
 62
     7
100
AcDbVertex
100
AcDb2dVertex
 10
116.0995767992646
 20
-187.4978981979656
 30
0.0
  0
VERTEX
  5
1ED
330
1EB
100
AcDbEntity
  8
LIVELLO_1
 62
     7
100
AcDbVertex
100
AcDb2dVertex
 10
115.1053177398923
 20
-187.4978981979656
 30
0.0
  0
SEQEND
  5
1EE
330
1EB
100
AcDbEntity
  8
LIVELLO_1
 62
     7
  0
POLYLINE
  5
1EF
330
1F
100
AcDbEntity
  8
LIVELLO_1
 62
     7
100
AcDb2dPolyline
 66
     1
 10
0.0
 20
0.0
 30
0.0
  0
VERTEX
  5
1F0
330
1EF
100
AcDbEntity
  8
LIVELLO_1
 62
     7
100
AcDbVertex
100
AcDb2dVertex
 10
110.1337593651409
 20
-187.4978981979656
 30
0.0
  0
VERTEX
  5
1F1
330
1EF
100
AcDbEntity
  8
LIVELLO_1
 62
     7
100
AcDbVertex
100
AcDb2dVertex
 10
109.1394126131344
 20
-187.4978981979656
 30
0.0
  0
SEQEND
  5
1F2
330
1EF
100
AcDbEntity
  8
LIVELLO_1
 62
     7
  0
POLYLINE
  5
1F3
330
1F
100
AcDbEntity
  8
LIVELLO_1
 62
     7
100
AcDb2dPolyline
 66
     1
 10
0.0
 20
0.0
 30
0.0
  0
VERTEX
  5
1F4
330
1F3
100
AcDbEntity
  8
LIVELLO_1
 62
     7
100
AcDbVertex
100
AcDb2dVertex
 10
83.5359702911642
 20
-188.6642978935638
 30
0.0
  0
VERTEX
  5
1F5
330
1F3
100
AcDbEntity
  8
LIVELLO_1
 62
     7
100
AcDbVertex
100
AcDb2dVertex
 10
83.5359702911642
 20
-188.4631309962106
 30
0.0
  0
SEQEND
  5
1F6
330
1F3
100
AcDbEntity
  8
LIVELLO_1
 62
     7
  0
POLYLINE
  5
1F7
330
1F
100
AcDbEntity
  8
LIVELLO_1
 62
     7
100
AcDb2dPolyline
 66
     1
 10
0.0
 20
0.0
 30
0.0
  0
VERTEX
  5
1F8
330
1F7
100
AcDbEntity
  8
LIVELLO_1
 62
     7
100
AcDbVertex
100
AcDb2dVertex
 10
83.5359702911642
 20
-187.4978981979656
 30
0.0
  0
VERTEX
  5
1F9
330
1F7
100
AcDbEntity
  8
LIVELLO_1
 62
     7
100
AcDbVertex
100
AcDb2dVertex
 10
83.67040309571787
 20
-187.6324186951537
 30
0.0
  0
SEQEND
  5
1FA
330
1F7
100
AcDbEntity
  8
LIVELLO_1
 62
     7
  0
POLYLINE
  5
1FB
330
1F
100
AcDbEntity
  8
LIVELLO_1
 62
     7
100
AcDb2dPolyline
 66
     1
 10
0.0
 20
0.0
 30
0.0
  0
VERTEX
  5
1FC
330
1FB
100
AcDbEntity
  8
LIVELLO_1
 62
     7
100
AcDbVertex
100
AcDb2dVertex
 10
82.6763194216075
 20
-189.3725035880016
 30
0.0
  0
VERTEX
  5
1FD
330
1FB
100
AcDbEntity
  8
LIVELLO_1
 62
     7
100
AcDbVertex
100
AcDb2dVertex
 10
82.61554842777258
 20
-189.311732594161
 30
0.0
  0
SEQEND
  5
1FE
330
1FB
100
AcDbEntity
  8
LIVELLO_1
 62
     7
  0
POLYLINE
  5
1FF
330
1F
100
AcDbEntity
  8
LIVELLO_1
 62
     7
100
AcDb2dPolyline
 66
     1
 10
0.0
 20
0.0
 30
0.0
  0
VERTEX
  5
200
330
1FF
100
AcDbEntity
  8
LIVELLO_1
 62
     7
100
AcDbVertex
100
AcDb2dVertex
 10
83.67040309571787
 20
-188.3783322212571
 30
0.0
  0
VERTEX
  5
201
330
1FF
100
AcDbEntity
  8
LIVELLO_1
 62
     7
100
AcDbVertex
100
AcDb2dVertex
 10
83.59647820710971
 20
-188.3043196400147
 30
0.0
  0
SEQEND
  5
202
330
1FF
100
AcDbEntity
  8
LIVELLO_1
 62
     7
  0
POLYLINE
  5
203
330
1F
100
AcDbEntity
  8
LIVELLO_1
 62
     7
100
AcDb2dPolyline
 66
     1
 10
0.0
 20
0.0
 30
0.0
  0
VERTEX
  5
204
330
203
100
AcDbEntity
  8
LIVELLO_1
 62
     7
100
AcDbVertex
100
AcDb2dVertex
 10
77.57006516441304
 20
-189.3725035880016
 30
0.0
  0
VERTEX
  5
205
330
203
100
AcDbEntity
  8
LIVELLO_1
 62
     7
100
AcDbVertex
100
AcDb2dVertex
 10
77.57006516441304
 20
-189.311732594161
 30
0.0
  0
SEQEND
  5
206
330
203
100
AcDbEntity
  8
LIVELLO_1
 62
     7
  0
POLYLINE
  5
207
330
1F
100
AcDbEntity
  8
LIVELLO_1
 62
     7
100
AcDb2dPolyline
 66
     1
 10
0.0
 20
0.0
 30
0.0
  0
VERTEX
  5
208
330
207
100
AcDbEntity
  8
LIVELLO_1
 62
     7
100
AcDbVertex
100
AcDb2dVertex
 10
77.57006516441304
 20
-189.311732594161
 30
0.0
  0
VERTEX
  5
209
330
207
100
AcDbEntity
  8
LIVELLO_1
 62
     7
100
AcDbVertex
100
AcDb2dVertex
 10
82.61554842777258
 20
-189.311732594161
 30
0.0
  0
SEQEND
  5
20A
330
207
100
AcDbEntity
  8
LIVELLO_1
 62
     7
  0
POLYLINE
  5
20B
330
1F
100
AcDbEntity
  8
LIVELLO_1
 62
     7
100
AcDb2dPolyline
 66
     1
 10
0.0
 20
0.0
 30
0.0
  0
VERTEX
  5
20C
330
20B
100
AcDbEntity
  8
LIVELLO_1
 62
     7
100
AcDbVertex
100
AcDb2dVertex
 10
71.79357612234747
 20
-187.285331258476
 30
0.0
  0
VERTEX
  5
20D
330
20B
100
AcDbEntity
  8
LIVELLO_1
 62
     7
100
AcDbVertex
100
AcDb2dVertex
 10
71.72850818955128
 20
-187.2202633256802
 30
0.0
  0
SEQEND
  5
20E
330
20B
100
AcDbEntity
  8
LIVELLO_1
 62
     7
  0
POLYLINE
  5
20F
330
1F
100
AcDbEntity
  8
LIVELLO_1
 62
     7
100
AcDb2dPolyline
 66
     1
 10
0.0
 20
0.0
 30
0.0
  0
VERTEX
  5
210
330
20F
100
AcDbEntity
  8
LIVELLO_1
 62
     7
100
AcDbVertex
100
AcDb2dVertex
 10
76.57580610504039
 20
-187.6324186951537
 30
0.0
  0
VERTEX
  5
211
330
20F
100
AcDbEntity
  8
LIVELLO_1
 62
     7
100
AcDbVertex
100
AcDb2dVertex
 10
76.57580610504039
 20
-187.4978981979656
 30
0.0
  0
SEQEND
  5
212
330
20F
100
AcDbEntity
  8
LIVELLO_1
 62
     7
  0
POLYLINE
  5
213
330
1F
100
AcDbEntity
  8
LIVELLO_1
 62
     7
100
AcDb2dPolyline
 66
     1
 10
0.0
 20
0.0
 30
0.0
  0
VERTEX
  5
214
330
213
100
AcDbEntity
  8
LIVELLO_1
 62
     7
100
AcDbVertex
100
AcDb2dVertex
 10
117.4667926216851
 20
-187.6324186951537
 30
0.0
  0
VERTEX
  5
215
330
213
100
AcDbEntity
  8
LIVELLO_1
 62
     7
100
AcDbVertex
100
AcDb2dVertex
 10
117.4667926216851
 20
-187.5803292718634
 30
0.0
  0
SEQEND
  5
216
330
213
100
AcDbEntity
  8
LIVELLO_1
 62
     7
  0
POLYLINE
  5
217
330
1F
100
AcDbEntity
  8
LIVELLO_1
 62
     7
100
AcDb2dPolyline
 66
     1
 10
0.0
 20
0.0
 30
0.0
  0
VERTEX
  5
218
330
217
100
AcDbEntity
  8
LIVELLO_1
 62
     7
100
AcDbVertex
100
AcDb2dVertex
 10
117.4667926216851
 20
-187.5803292718634
 30
0.0
  0
VERTEX
  5
219
330
217
100
AcDbEntity
  8
LIVELLO_1
 62
     7
100
AcDbVertex
100
AcDb2dVertex
 10
117.826858567869
 20
-187.5803292718634
 30
0.0
  0
SEQEND
  5
21A
330
217
100
AcDbEntity
  8
LIVELLO_1
 62
     7
  0
POLYLINE
  5
21B
330
1F
100
AcDbEntity
  8
LIVELLO_1
 62
     7
100
AcDb2dPolyline
 66
     1
 10
0.0
 20
0.0
 30
0.0
  0
VERTEX
  5
21C
330
21B
100
AcDbEntity
  8
LIVELLO_1
 62
     7
100
AcDbVertex
100
AcDb2dVertex
 10
117.826858567869
 20
-187.5803292718634
 30
0.0
  0
VERTEX
  5
21D
330
21B
100
AcDbEntity
  8
LIVELLO_1
 62
     7
100
AcDbVertex
100
AcDb2dVertex
 10
117.5910530809538
 20
-187.3445237849418
 30
0.0
  0
SEQEND
  5
21E
330
21B
100
AcDbEntity
  8
LIVELLO_1
 62
     7
  0
POLYLINE
  5
21F
330
1F
100
AcDbEntity
  8
LIVELLO_1
 62
     7
100
AcDb2dPolyline
 66
     1
 10
0.0
 20
0.0
 30
0.0
  0
VERTEX
  5
220
330
21F
100
AcDbEntity
  8
LIVELLO_1
 62
     7
100
AcDbVertex
100
AcDb2dVertex
 10
73.21998447124075
 20
-187.2202633256802
 30
0.0
  0
VERTEX
  5
221
330
21F
100
AcDbEntity
  8
LIVELLO_1
 62
     7
100
AcDbVertex
100
AcDb2dVertex
 10
73.15491653844455
 20
-187.285331258476
 30
0.0
  0
SEQEND
  5
222
330
21F
100
AcDbEntity
  8
LIVELLO_1
 62
     7
  0
POLYLINE
  5
223
330
1F
100
AcDbEntity
  8
LIVELLO_1
 62
     7
100
AcDb2dPolyline
 66
     1
 10
0.0
 20
0.0
 30
0.0
  0
VERTEX
  5
224
330
223
100
AcDbEntity
  8
LIVELLO_1
 62
     7
100
AcDbVertex
100
AcDb2dVertex
 10
117.826858567869
 20
-187.5803292718634
 30
0.0
  0
VERTEX
  5
225
330
223
100
AcDbEntity
  8
LIVELLO_1
 62
     7
100
AcDbVertex
100
AcDb2dVertex
 10
117.826858567869
 20
-187.3445237849418
 30
0.0
  0
SEQEND
  5
226
330
223
100
AcDbEntity
  8
LIVELLO_1
 62
     7
  0
POLYLINE
  5
227
330
1F
100
AcDbEntity
  8
LIVELLO_1
 62
     7
100
AcDb2dPolyline
 66
     1
 10
0.0
 20
0.0
 30
0.0
  0
VERTEX
  5
228
330
227
100
AcDbEntity
  8
LIVELLO_1
 62
     7
100
AcDbVertex
100
AcDb2dVertex
 10
121.5553738868273
 20
-152.7795083412315
 30
0.0
  0
VERTEX
  5
229
330
227
100
AcDbEntity
  8
LIVELLO_1
 62
     7
100
AcDbVertex
100
AcDb2dVertex
 10
121.1948694774866
 20
-152.4193547024205
 30
0.0
  0
SEQEND
  5
22A
330
227
100
AcDbEntity
  8
LIVELLO_1
 62
     7
  0
POLYLINE
  5
22B
330
1F
100
AcDbEntity
  8
LIVELLO_1
 62
     7
100
AcDb2dPolyline
 66
     1
 10
0.0
 20
0.0
 30
0.0
  0
VERTEX
  5
22C
330
22B
100
AcDbEntity
  8
LIVELLO_1
 62
     7
100
AcDbVertex
100
AcDb2dVertex
 10
121.5553738868273
 20
-152.7795083412315
 30
0.0
  0
VERTEX
  5
22D
330
22B
100
AcDbEntity
  8
LIVELLO_1
 62
     7
100
AcDbVertex
100
AcDb2dVertex
 10
121.6076386953796
 20
-152.8315977645225
 30
0.0
  0
SEQEND
  5
22E
330
22B
100
AcDbEntity
  8
LIVELLO_1
 62
     7
  0
POLYLINE
  5
22F
330
1F
100
AcDbEntity
  8
LIVELLO_1
 62
     7
100
AcDb2dPolyline
 66
     1
 10
0.0
 20
0.0
 30
0.0
  0
VERTEX
  5
230
330
22F
100
AcDbEntity
  8
LIVELLO_1
 62
     7
100
AcDbVertex
100
AcDb2dVertex
 10
135.8614621463737
 20
-152.4193547024205
 30
0.0
  0
VERTEX
  5
231
330
22F
100
AcDbEntity
  8
LIVELLO_1
 62
     7
100
AcDbVertex
100
AcDb2dVertex
 10
135.7963942135771
 20
-152.484422635217
 30
0.0
  0
SEQEND
  5
232
330
22F
100
AcDbEntity
  8
LIVELLO_1
 62
     7
  0
POLYLINE
  5
233
330
1F
100
AcDbEntity
  8
LIVELLO_1
 62
     7
100
AcDb2dPolyline
 66
     1
 10
0.0
 20
0.0
 30
0.0
  0
VERTEX
  5
234
330
233
100
AcDbEntity
  8
LIVELLO_1
 62
     7
100
AcDbVertex
100
AcDb2dVertex
 10
134.4351414901146
 20
-152.484422635217
 30
0.0
  0
VERTEX
  5
235
330
233
100
AcDbEntity
  8
LIVELLO_1
 62
     7
100
AcDbVertex
100
AcDb2dVertex
 10
134.3700735573181
 20
-152.4193547024205
 30
0.0
  0
SEQEND
  5
236
330
233
100
AcDbEntity
  8
LIVELLO_1
 62
     7
  0
POLYLINE
  5
237
330
1F
100
AcDbEntity
  8
LIVELLO_1
 62
     7
100
AcDb2dPolyline
 66
     1
 10
0.0
 20
0.0
 30
0.0
  0
VERTEX
  5
238
330
237
100
AcDbEntity
  8
LIVELLO_1
 62
     7
100
AcDbVertex
100
AcDb2dVertex
 10
121.6076386953796
 20
-187.8937427379219
 30
0.0
  0
VERTEX
  5
239
330
237
100
AcDbEntity
  8
LIVELLO_1
 62
     7
100
AcDbVertex
100
AcDb2dVertex
 10
121.5555492720893
 20
-187.8416533146315
 30
0.0
  0
SEQEND
  5
23A
330
237
100
AcDbEntity
  8
LIVELLO_1
 62
     7
  0
POLYLINE
  5
23B
330
1F
100
AcDbEntity
  8
LIVELLO_1
 62
     7
100
AcDb2dPolyline
 66
     1
 10
0.0
 20
0.0
 30
0.0
  0
VERTEX
  5
23C
330
23B
100
AcDbEntity
  8
LIVELLO_1
 62
     7
100
AcDbVertex
100
AcDb2dVertex
 10
121.5555492720893
 20
-187.8416533146315
 30
0.0
  0
VERTEX
  5
23D
330
23B
100
AcDbEntity
  8
LIVELLO_1
 62
     7
100
AcDbVertex
100
AcDb2dVertex
 10
121.5555492720893
 20
-186.4807513616922
 30
0.0
  0
SEQEND
  5
23E
330
23B
100
AcDbEntity
  8
LIVELLO_1
 62
     7
  0
POLYLINE
  5
23F
330
1F
100
AcDbEntity
  8
LIVELLO_1
 62
     7
100
AcDb2dPolyline
 66
     1
 10
0.0
 20
0.0
 30
0.0
  0
VERTEX
  5
240
330
23F
100
AcDbEntity
  8
LIVELLO_1
 62
     7
100
AcDbVertex
100
AcDb2dVertex
 10
121.5555492720893
 20
-186.4807513616922
 30
0.0
  0
VERTEX
  5
241
330
23F
100
AcDbEntity
  8
LIVELLO_1
 62
     7
100
AcDbVertex
100
AcDb2dVertex
 10
121.6076386953796
 20
-186.4817159806477
 30
0.0
  0
SEQEND
  5
242
330
23F
100
AcDbEntity
  8
LIVELLO_1
 62
     7
  0
POLYLINE
  5
243
330
1F
100
AcDbEntity
  8
LIVELLO_1
 62
     7
100
AcDb2dPolyline
 66
     1
 10
0.0
 20
0.0
 30
0.0
  0
VERTEX
  5
244
330
243
100
AcDbEntity
  8
LIVELLO_1
 62
     7
100
AcDbVertex
100
AcDb2dVertex
 10
121.6076386953796
 20
-156.8865927516797
 30
0.0
  0
VERTEX
  5
245
330
243
100
AcDbEntity
  8
LIVELLO_1
 62
     7
100
AcDbVertex
100
AcDb2dVertex
 10
121.5555492720893
 20
-156.8874696779946
 30
0.0
  0
SEQEND
  5
246
330
243
100
AcDbEntity
  8
LIVELLO_1
 62
     7
  0
POLYLINE
  5
247
330
1F
100
AcDbEntity
  8
LIVELLO_1
 62
     7
100
AcDb2dPolyline
 66
     1
 10
0.0
 20
0.0
 30
0.0
  0
VERTEX
  5
248
330
247
100
AcDbEntity
  8
LIVELLO_1
 62
     7
100
AcDbVertex
100
AcDb2dVertex
 10
121.5555492720893
 20
-156.8874696779946
 30
0.0
  0
VERTEX
  5
249
330
247
100
AcDbEntity
  8
LIVELLO_1
 62
     7
100
AcDbVertex
100
AcDb2dVertex
 10
121.5553738868273
 20
-152.7795083412315
 30
0.0
  0
SEQEND
  5
24A
330
247
100
AcDbEntity
  8
LIVELLO_1
 62
     7
  0
POLYLINE
  5
24B
330
1F
100
AcDbEntity
  8
LIVELLO_1
 62
     7
100
AcDb2dPolyline
 66
     1
 10
0.0
 20
0.0
 30
0.0
  0
VERTEX
  5
24C
330
24B
100
AcDbEntity
  8
LIVELLO_1
 62
     7
100
AcDbVertex
100
AcDb2dVertex
 10
117.4667926216851
 20
-187.8416533146315
 30
0.0
  0
VERTEX
  5
24D
330
24B
100
AcDbEntity
  8
LIVELLO_1
 62
     7
100
AcDbVertex
100
AcDb2dVertex
 10
121.5555492720893
 20
-187.8416533146315
 30
0.0
  0
SEQEND
  5
24E
330
24B
100
AcDbEntity
  8
LIVELLO_1
 62
     7
  0
POLYLINE
  5
24F
330
1F
100
AcDbEntity
  8
LIVELLO_1
 62
     7
100
AcDb2dPolyline
 66
     1
 10
0.0
 20
0.0
 30
0.0
  0
VERTEX
  5
250
330
24F
100
AcDbEntity
  8
LIVELLO_1
 62
     7
100
AcDbVertex
100
AcDb2dVertex
 10
121.1953956332783
 20
-186.4745251848381
 30
0.0
  0
VERTEX
  5
251
330
24F
100
AcDbEntity
  8
LIVELLO_1
 62
     7
100
AcDbVertex
100
AcDb2dVertex
 10
121.1953956332783
 20
-184.2373107623076
 30
0.0
  0
SEQEND
  5
252
330
24F
100
AcDbEntity
  8
LIVELLO_1
 62
     7
  0
POLYLINE
  5
253
330
1F
100
AcDbEntity
  8
LIVELLO_1
 62
     7
100
AcDb2dPolyline
 66
     1
 10
0.0
 20
0.0
 30
0.0
  0
VERTEX
  5
254
330
253
100
AcDbEntity
  8
LIVELLO_1
 62
     7
100
AcDbVertex
100
AcDb2dVertex
 10
121.1953956332783
 20
-179.5142733060808
 30
0.0
  0
VERTEX
  5
255
330
253
100
AcDbEntity
  8
LIVELLO_1
 62
     7
100
AcDbVertex
100
AcDb2dVertex
 10
121.1953956332783
 20
-169.9441133196262
 30
0.0
  0
SEQEND
  5
256
330
253
100
AcDbEntity
  8
LIVELLO_1
 62
     7
  0
SPLINE
  5
257
330
1F
100
AcDbEntity
  8
LIVELLO_1
 62
     7
100
AcDbSpline
210
0.0
220
0.0
230
1.0
 70
     8
 71
     3
 72
     8
 73
     4
 74
     0
 42
0.0000000001
 43
0.0000000001
 12
1.0
 22
0.0
 32
0.0
 13
1.0
 23
0.0
 33
0.0
 40
0.0
 40
0.0
 40
0.0
 40
0.0
 40
1.0
 40
1.0
 40
1.0
 40
1.0
 10
120.9381054515692
 20
-152.8307208382069
 30
0.0
 10
121.1431308247259
 20
-152.7962576339005
 30
0.0
 10
121.3475423494568
 20
-152.7793329559638
 30
0.0
 10
121.5553738868273
 20
-152.7795083412315
 30
0.0
  0
POLYLINE
  5
258
330
1F
100
AcDbEntity
  8
LIVELLO_1
 62
     7
100
AcDb2dPolyline
 66
     1
 10
0.0
 20
0.0
 30
0.0
  0
VERTEX
  5
259
330
258
100
AcDbEntity
  8
LIVELLO_1
 62
     7
100
AcDbVertex
100
AcDb2dVertex
 10
121.1953956332783
 20
-165.2210758634057
 30
0.0
  0
VERTEX
  5
25A
330
258
100
AcDbEntity
  8
LIVELLO_1
 62
     7
100
AcDbVertex
100
AcDb2dVertex
 10
121.1953956332783
 20
-156.8937835474892
 30
0.0
  0
SEQEND
  5
25B
330
258
100
AcDbEntity
  8
LIVELLO_1
 62
     7
  0
POLYLINE
  5
25C
330
1F
100
AcDbEntity
  8
LIVELLO_1
 62
     7
100
AcDb2dPolyline
 66
     1
 10
0.0
 20
0.0
 30
0.0
  0
VERTEX
  5
25D
330
25C
100
AcDbEntity
  8
LIVELLO_1
 62
     7
100
AcDbVertex
100
AcDb2dVertex
 10
121.1953956332783
 20
-184.2373107623076
 30
0.0
  0
VERTEX
  5
25E
330
25C
100
AcDbEntity
  8
LIVELLO_1
 62
     7
100
AcDbVertex
100
AcDb2dVertex
 10
120.9381054515692
 20
-184.1729443705647
 30
0.0
  0
SEQEND
  5
25F
330
25C
100
AcDbEntity
  8
LIVELLO_1
 62
     7
  0
SPLINE
  5
260
330
1F
100
AcDbEntity
  8
LIVELLO_1
 62
     7
100
AcDbSpline
210
0.0
220
0.0
230
1.0
 70
     8
 71
     3
 72
    26
 73
    22
 74
     0
 42
0.0000000001
 43
0.0000000001
 12
1.0
 22
0.0
 32
0.0
 13
1.0
 23
0.0
 33
0.0
 40
0.0
 40
0.0
 40
0.0
 40
0.0
 40
1.0
 40
1.0
 40
1.0
 40
2.0
 40
2.0
 40
2.0
 40
3.0
 40
3.0
 40
3.0
 40
4.0
 40
4.0
 40
4.0
 40
5.0
 40
5.0
 40
5.0
 40
6.0
 40
6.0
 40
6.0
 40
7.0
 40
7.0
 40
7.0
 40
7.0
 10
121.1953956332783
 20
-179.5142733060808
 30
0.0
 10
121.119629199399
 20
-179.4475392132751
 30
0.0
 10
121.1953956332783
 20
-179.6152952179116
 30
0.0
 10
121.1953956332783
 20
-179.6658061738335
 30
0.0
 10
121.1953956332783
 20
-179.8119897910477
 30
0.0
 10
121.1953956332783
 20
-179.958173408262
 30
0.0
 10
121.1953956332783
 20
-180.104269332842
 30
0.0
 10
121.1953956332783
 20
-180.3011392912401
 30
0.0
 10
121.1953956332783
 20
-180.4979215570039
 30
0.0
 10
121.1953956332783
 20
-180.6947038227671
 30
0.0
 10
121.1953956332783
 20
-181.0884437395568
 30
0.0
 10
121.1953956332783
 20
-181.4820959637187
 30
0.0
 10
121.1953956332783
 20
-181.8758358805078
 30
0.0
 10
121.1953956332783
 20
-182.2694004120355
 30
0.0
 10
121.1953956332783
 20
-182.6630526361974
 30
0.0
 10
121.1953956332783
 20
-183.0566171677245
 30
0.0
 10
121.1953956332783
 20
-183.2533994334819
 30
0.0
 10
121.1953956332783
 20
-183.4501816992522
 30
0.0
 10
121.1953956332783
 20
-183.6469639650096
 30
0.0
 10
121.1953956332783
 20
-183.8437462307799
 30
0.0
 10
121.1953956332783
 20
-184.6308752938353
 30
0.0
 10
121.1953956332783
 20
-184.2373107623076
 30
0.0
  0
POLYLINE
  5
261
330
1F
100
AcDbEntity
  8
LIVELLO_1
 62
     7
100
AcDb2dPolyline
 66
     1
 10
0.0
 20
0.0
 30
0.0
  0
VERTEX
  5
262
330
261
100
AcDbEntity
  8
LIVELLO_1
 62
     7
100
AcDbVertex
100
AcDb2dVertex
 10
144.0913279483609
 20
-186.8741405079579
 30
0.0
  0
VERTEX
  5
263
330
261
100
AcDbEntity
  8
LIVELLO_1
 62
     7
100
AcDbVertex
100
AcDb2dVertex
 10
143.443104014083
 20
-186.2259165736801
 30
0.0
  0
SEQEND
  5
264
330
261
100
AcDbEntity
  8
LIVELLO_1
 62
     7
  0
POLYLINE
  5
265
330
1F
100
AcDbEntity
  8
LIVELLO_1
 62
     7
100
AcDb2dPolyline
 66
     1
 10
0.0
 20
0.0
 30
0.0
  0
VERTEX
  5
266
330
265
100
AcDbEntity
  8
LIVELLO_1
 62
     7
100
AcDbVertex
100
AcDb2dVertex
 10
122.6034762221211
 20
-184.2618646992114
 30
0.0
  0
VERTEX
  5
267
330
265
100
AcDbEntity
  8
LIVELLO_1
 62
     7
100
AcDbVertex
100
AcDb2dVertex
 10
121.1953956332783
 20
-184.2373107623076
 30
0.0
  0
SEQEND
  5
268
330
265
100
AcDbEntity
  8
LIVELLO_1
 62
     7
  0
POLYLINE
  5
269
330
1F
100
AcDbEntity
  8
LIVELLO_1
 62
     7
100
AcDb2dPolyline
 66
     1
 10
0.0
 20
0.0
 30
0.0
  0
VERTEX
  5
26A
330
269
100
AcDbEntity
  8
LIVELLO_1
 62
     7
100
AcDbVertex
100
AcDb2dVertex
 10
147.4596896285089
 20
-186.9328945712662
 30
0.0
  0
VERTEX
  5
26B
330
269
100
AcDbEntity
  8
LIVELLO_1
 62
     7
100
AcDbVertex
100
AcDb2dVertex
 10
121.6076386953796
 20
-186.4817159806477
 30
0.0
  0
SEQEND
  5
26C
330
269
100
AcDbEntity
  8
LIVELLO_1
 62
     7
  0
POLYLINE
  5
26D
330
1F
100
AcDbEntity
  8
LIVELLO_1
 62
     7
100
AcDb2dPolyline
 66
     1
 10
0.0
 20
0.0
 30
0.0
  0
VERTEX
  5
26E
330
26D
100
AcDbEntity
  8
LIVELLO_1
 62
     7
100
AcDbVertex
100
AcDb2dVertex
 10
121.5555492720893
 20
-186.4807513616922
 30
0.0
  0
VERTEX
  5
26F
330
26D
100
AcDbEntity
  8
LIVELLO_1
 62
     7
100
AcDbVertex
100
AcDb2dVertex
 10
121.1953956332783
 20
-186.4745251848381
 30
0.0
  0
SEQEND
  5
270
330
26D
100
AcDbEntity
  8
LIVELLO_1
 62
     7
  0
SPLINE
  5
271
330
1F
100
AcDbEntity
  8
LIVELLO_1
 62
     7
100
AcDbSpline
210
0.0
220
0.0
230
1.0
 70
     8
 71
     3
 72
     8
 73
     4
 74
     0
 42
0.0000000001
 43
0.0000000001
 12
1.0
 22
0.0
 32
0.0
 13
1.0
 23
0.0
 33
0.0
 40
0.0
 40
0.0
 40
0.0
 40
0.0
 40
1.0
 40
1.0
 40
1.0
 40
1.0
 10
82.85082775889548
 20
-189.2834955667143
 30
0.0
 10
83.39250514553629
 20
-189.1464319832149
 30
0.0
 10
83.59796898185047
 20
-188.8818633130685
 30
0.0
 10
83.59656589973716
 20
-188.3230858632226
 30
0.0
  0
SPLINE
  5
272
330
1F
100
AcDbEntity
  8
LIVELLO_1
 62
     7
100
AcDbSpline
210
0.0
220
0.0
230
1.0
 70
     8
 71
     3
 72
     8
 73
     4
 74
     0
 42
0.0000000001
 43
0.0000000001
 12
1.0
 22
0.0
 32
0.0
 13
1.0
 23
0.0
 33
0.0
 40
0.0
 40
0.0
 40
0.0
 40
0.0
 40
1.0
 40
1.0
 40
1.0
 40
1.0
 10
83.59656589973716
 20
-188.3195781579488
 30
0.0
 10
83.59656589973716
 20
-188.3144919853058
 30
0.0
 10
83.59656589973716
 20
-188.3094058126635
 30
0.0
 10
83.59647820710971
 20
-188.3043196400147
 30
0.0
  0
SPLINE
  5
273
330
1F
100
AcDbEntity
  8
LIVELLO_1
 62
     7
100
AcDbSpline
210
0.0
220
0.0
230
1.0
 70
     8
 71
     3
 72
     8
 73
     4
 74
     0
 42
0.0000000001
 43
0.0000000001
 12
1.0
 22
0.0
 32
0.0
 13
1.0
 23
0.0
 33
0.0
 40
0.0
 40
0.0
 40
0.0
 40
0.0
 40
1.0
 40
1.0
 40
1.0
 40
1.0
 10
77.32145655325431
 20
-189.2801632467089
 30
0.0
 10
77.40362454924954
 20
-189.3013848636073
 30
0.0
 10
77.48517869682505
 20
-189.311732594161
 30
0.0
 10
77.57006516441304
 20
-189.311732594161
 30
0.0
  0
SPLINE
  5
274
330
1F
100
AcDbEntity
  8
LIVELLO_1
 62
     7
100
AcDbSpline
210
0.0
220
0.0
230
1.0
 70
     8
 71
     3
 72
     8
 73
     4
 74
     0
 42
0.0000000001
 43
0.0000000001
 12
1.0
 22
0.0
 32
0.0
 13
1.0
 23
0.0
 33
0.0
 40
0.0
 40
0.0
 40
0.0
 40
0.0
 40
1.0
 40
1.0
 40
1.0
 40
1.0
 10
82.61554842777258
 20
-189.311732594161
 30
0.0
 10
82.69569949323477
 20
-189.311732594161
 30
0.0
 10
82.7729567018554
 20
-189.3024371751906
 30
0.0
 10
82.85082775889548
 20
-189.2834955667143
 30
0.0
  0
SPLINE
  5
275
330
1F
100
AcDbEntity
  8
LIVELLO_1
 62
     7
100
AcDbSpline
210
0.0
220
0.0
230
1.0
 70
     8
 71
     3
 72
     8
 73
     4
 74
     0
 42
0.0000000001
 43
0.0000000001
 12
1.0
 22
0.0
 32
0.0
 13
1.0
 23
0.0
 33
0.0
 40
0.0
 40
0.0
 40
0.0
 40
0.0
 40
1.0
 40
1.0
 40
1.0
 40
1.0
 10
76.57843688399254
 20
-188.3778060654718
 30
0.0
 10
76.61474163356363
 20
-188.8973849088987
 30
0.0
 10
76.81845161723449
 20
-189.1448535158393
 30
0.0
 10
77.32145655325431
 20
-189.2801632467089
 30
0.0
  0
POLYLINE
  5
276
330
1F
100
AcDbEntity
  8
LIVELLO_1
 62
     7
100
AcDb2dPolyline
 66
     1
 10
0.0
 20
0.0
 30
0.0
  0
VERTEX
  5
277
330
276
100
AcDbEntity
  8
LIVELLO_1
 62
     7
100
AcDbVertex
100
AcDb2dVertex
 10
116.0995767992646
 20
-187.4978981979656
 30
0.0
  0
VERTEX
  5
278
330
276
100
AcDbEntity
  8
LIVELLO_1
 62
     7
100
AcDbVertex
100
AcDb2dVertex
 10
115.9650563020764
 20
-187.6324186951537
 30
0.0
  0
SEQEND
  5
279
330
276
100
AcDbEntity
  8
LIVELLO_1
 62
     7
  0
POLYLINE
  5
27A
330
1F
100
AcDbEntity
  8
LIVELLO_1
 62
     7
100
AcDb2dPolyline
 66
     1
 10
0.0
 20
0.0
 30
0.0
  0
VERTEX
  5
27B
330
27A
100
AcDbEntity
  8
LIVELLO_1
 62
     7
100
AcDbVertex
100
AcDb2dVertex
 10
114.9703587795466
 20
-189.3725035880016
 30
0.0
  0
VERTEX
  5
27C
330
27A
100
AcDbEntity
  8
LIVELLO_1
 62
     7
100
AcDbVertex
100
AcDb2dVertex
 10
115.0310420807538
 20
-189.311732594161
 30
0.0
  0
SEQEND
  5
27D
330
27A
100
AcDbEntity
  8
LIVELLO_1
 62
     7
  0
POLYLINE
  5
27E
330
1F
100
AcDbEntity
  8
LIVELLO_1
 62
     7
100
AcDb2dPolyline
 66
     1
 10
0.0
 20
0.0
 30
0.0
  0
VERTEX
  5
27F
330
27E
100
AcDbEntity
  8
LIVELLO_1
 62
     7
100
AcDbVertex
100
AcDb2dVertex
 10
115.0310420807538
 20
-189.311732594161
 30
0.0
  0
VERTEX
  5
280
330
27E
100
AcDbEntity
  8
LIVELLO_1
 62
     7
100
AcDbVertex
100
AcDb2dVertex
 10
110.0598344765321
 20
-189.311732594161
 30
0.0
  0
SEQEND
  5
281
330
27E
100
AcDbEntity
  8
LIVELLO_1
 62
     7
  0
SPLINE
  5
282
330
1F
100
AcDbEntity
  8
LIVELLO_1
 62
     7
100
AcDbSpline
210
0.0
220
0.0
230
1.0
 70
     8
 71
     3
 72
     8
 73
     4
 74
     0
 42
0.0000000001
 43
0.0000000001
 12
1.0
 22
0.0
 32
0.0
 13
1.0
 23
0.0
 33
0.0
 40
0.0
 40
0.0
 40
0.0
 40
0.0
 40
1.0
 40
1.0
 40
1.0
 40
1.0
 10
110.0598344765321
 20
-189.311732594161
 30
0.0
 10
109.9796834110641
 20
-189.311732594161
 30
0.0
 10
109.9023385098157
 20
-189.3024371751906
 30
0.0
 10
109.8245551454034
 20
-189.2834955667143
 30
0.0
  0
SPLINE
  5
283
330
1F
100
AcDbEntity
  8
LIVELLO_1
 62
     7
100
AcDbSpline
210
0.0
220
0.0
230
1.0
 70
     8
 71
     3
 72
     8
 73
     4
 74
     0
 42
0.0000000001
 43
0.0000000001
 12
1.0
 22
0.0
 32
0.0
 13
1.0
 23
0.0
 33
0.0
 40
0.0
 40
0.0
 40
0.0
 40
0.0
 40
1.0
 40
1.0
 40
1.0
 40
1.0
 10
115.0310420807538
 20
-189.311732594161
 30
0.0
 10
115.1207516430883
 20
-189.311732594161
 30
0.0
 10
115.2065150369915
 20
-189.3002448593962
 30
0.0
 10
115.2929799719477
 20
-189.2765678488073
 30
0.0
  0
POLYLINE
  5
284
330
1F
100
AcDbEntity
  8
LIVELLO_1
 62
     7
100
AcDb2dPolyline
 66
     1
 10
0.0
 20
0.0
 30
0.0
  0
VERTEX
  5
285
330
284
100
AcDbEntity
  8
LIVELLO_1
 62
     7
100
AcDbVertex
100
AcDb2dVertex
 10
109.9990634826914
 20
-189.3725035880016
 30
0.0
  0
VERTEX
  5
286
330
284
100
AcDbEntity
  8
LIVELLO_1
 62
     7
100
AcDbVertex
100
AcDb2dVertex
 10
110.0598344765321
 20
-189.311732594161
 30
0.0
  0
SEQEND
  5
287
330
284
100
AcDbEntity
  8
LIVELLO_1
 62
     7
  0
POLYLINE
  5
288
330
1F
100
AcDbEntity
  8
LIVELLO_1
 62
     7
100
AcDb2dPolyline
 66
     1
 10
0.0
 20
0.0
 30
0.0
  0
VERTEX
  5
289
330
288
100
AcDbEntity
  8
LIVELLO_1
 62
     7
100
AcDbVertex
100
AcDb2dVertex
 10
109.0048921159533
 20
-188.3783322212571
 30
0.0
  0
VERTEX
  5
28A
330
288
100
AcDbEntity
  8
LIVELLO_1
 62
     7
100
AcDbVertex
100
AcDb2dVertex
 10
109.0789046971892
 20
-188.3043196400147
 30
0.0
  0
SEQEND
  5
28B
330
288
100
AcDbEntity
  8
LIVELLO_1
 62
     7
  0
POLYLINE
  5
28C
330
1F
100
AcDbEntity
  8
LIVELLO_1
 62
     7
100
AcDb2dPolyline
 66
     1
 10
0.0
 20
0.0
 30
0.0
  0
VERTEX
  5
28D
330
28C
100
AcDbEntity
  8
LIVELLO_1
 62
     7
100
AcDbVertex
100
AcDb2dVertex
 10
109.0048921159533
 20
-187.6324186951537
 30
0.0
  0
VERTEX
  5
28E
330
28C
100
AcDbEntity
  8
LIVELLO_1
 62
     7
100
AcDbVertex
100
AcDb2dVertex
 10
109.1394126131344
 20
-187.4978981979656
 30
0.0
  0
SEQEND
  5
28F
330
28C
100
AcDbEntity
  8
LIVELLO_1
 62
     7
  0
POLYLINE
  5
290
330
1F
100
AcDbEntity
  8
LIVELLO_1
 62
     7
100
AcDb2dPolyline
 66
     1
 10
0.0
 20
0.0
 30
0.0
  0
VERTEX
  5
291
330
290
100
AcDbEntity
  8
LIVELLO_1
 62
     7
100
AcDbVertex
100
AcDb2dVertex
 10
109.1394126131344
 20
-188.4631309962106
 30
0.0
  0
VERTEX
  5
292
330
290
100
AcDbEntity
  8
LIVELLO_1
 62
     7
100
AcDbVertex
100
AcDb2dVertex
 10
109.1394126131344
 20
-188.6652625125193
 30
0.0
  0
SEQEND
  5
293
330
290
100
AcDbEntity
  8
LIVELLO_1
 62
     7
  0
SPLINE
  5
294
330
1F
100
AcDbEntity
  8
LIVELLO_1
 62
     7
100
AcDbSpline
210
0.0
220
0.0
230
1.0
 70
     8
 71
     3
 72
     8
 73
     4
 74
     0
 42
0.0000000001
 43
0.0000000001
 12
1.0
 22
0.0
 32
0.0
 13
1.0
 23
0.0
 33
0.0
 40
0.0
 40
0.0
 40
0.0
 40
0.0
 40
1.0
 40
1.0
 40
1.0
 40
1.0
 10
109.0789046971892
 20
-188.3043196400147
 30
0.0
 10
109.0788170045614
 20
-188.3094058126635
 30
0.0
 10
109.0788170045614
 20
-188.3144919853058
 30
0.0
 10
109.0788170045614
 20
-188.3195781579488
 30
0.0
  0
SPLINE
  5
295
330
1F
100
AcDbEntity
  8
LIVELLO_1
 62
     7
100
AcDbSpline
210
0.0
220
0.0
230
1.0
 70
     8
 71
     3
 72
     8
 73
     4
 74
     0
 42
0.0000000001
 43
0.0000000001
 12
1.0
 22
0.0
 32
0.0
 13
1.0
 23
0.0
 33
0.0
 40
0.0
 40
0.0
 40
0.0
 40
0.0
 40
1.0
 40
1.0
 40
1.0
 40
1.0
 10
109.0788170045614
 20
-188.3230858632226
 30
0.0
 10
109.0762739182438
 20
-188.8825648541157
 30
0.0
 10
109.2817377545515
 20
-189.1473089095299
 30
0.0
 10
109.8245551454034
 20
-189.2834955667143
 30
0.0
  0
SPLINE
  5
296
330
1F
100
AcDbEntity
  8
LIVELLO_1
 62
     7
100
AcDbSpline
210
0.0
220
0.0
230
1.0
 70
     8
 71
     3
 72
     8
 73
     4
 74
     0
 42
0.0000000001
 43
0.0000000001
 12
1.0
 22
0.0
 32
0.0
 13
1.0
 23
0.0
 33
0.0
 40
0.0
 40
0.0
 40
0.0
 40
0.0
 40
1.0
 40
1.0
 40
1.0
 40
1.0
 10
115.2929799719477
 20
-189.2765678488073
 30
0.0
 10
115.3996142122196
 20
-189.2471031245219
 30
0.0
 10
115.4948484103545
 20
-189.2029060380947
 30
0.0
 10
115.5862241326918
 20
-189.1405565768777
 30
0.0
  0
POLYLINE
  5
297
330
1F
100
AcDbEntity
  8
LIVELLO_1
 62
     7
100
AcDb2dPolyline
 66
     1
 10
0.0
 20
0.0
 30
0.0
  0
VERTEX
  5
298
330
297
100
AcDbEntity
  8
LIVELLO_1
 62
     7
100
AcDbVertex
100
AcDb2dVertex
 10
120.9381054515692
 20
-179.578639697823
 30
0.0
  0
VERTEX
  5
299
330
297
100
AcDbEntity
  8
LIVELLO_1
 62
     7
100
AcDbVertex
100
AcDb2dVertex
 10
121.1953956332783
 20
-179.5142733060808
 30
0.0
  0
SEQEND
  5
29A
330
297
100
AcDbEntity
  8
LIVELLO_1
 62
     7
  0
POLYLINE
  5
29B
330
1F
100
AcDbEntity
  8
LIVELLO_1
 62
     7
100
AcDb2dPolyline
 66
     1
 10
0.0
 20
0.0
 30
0.0
  0
VERTEX
  5
29C
330
29B
100
AcDbEntity
  8
LIVELLO_1
 62
     7
100
AcDbVertex
100
AcDb2dVertex
 10
121.1953956332783
 20
-169.9441133196262
 30
0.0
  0
VERTEX
  5
29D
330
29B
100
AcDbEntity
  8
LIVELLO_1
 62
     7
100
AcDbVertex
100
AcDb2dVertex
 10
120.9381054515692
 20
-169.8797469278839
 30
0.0
  0
SEQEND
  5
29E
330
29B
100
AcDbEntity
  8
LIVELLO_1
 62
     7
  0
POLYLINE
  5
29F
330
1F
100
AcDbEntity
  8
LIVELLO_1
 62
     7
100
AcDb2dPolyline
 66
     1
 10
0.0
 20
0.0
 30
0.0
  0
VERTEX
  5
2A0
330
29F
100
AcDbEntity
  8
LIVELLO_1
 62
     7
100
AcDbVertex
100
AcDb2dVertex
 10
121.1953956332783
 20
-165.2210758634057
 30
0.0
  0
VERTEX
  5
2A1
330
29F
100
AcDbEntity
  8
LIVELLO_1
 62
     7
100
AcDbVertex
100
AcDb2dVertex
 10
121.1953956332783
 20
-169.9441133196262
 30
0.0
  0
SEQEND
  5
2A2
330
29F
100
AcDbEntity
  8
LIVELLO_1
 62
     7
  0
POLYLINE
  5
2A3
330
1F
100
AcDbEntity
  8
LIVELLO_1
 62
     7
100
AcDb2dPolyline
 66
     1
 10
0.0
 20
0.0
 30
0.0
  0
VERTEX
  5
2A4
330
2A3
100
AcDbEntity
  8
LIVELLO_1
 62
     7
100
AcDbVertex
100
AcDb2dVertex
 10
120.9381054515692
 20
-165.2854422551486
 30
0.0
  0
VERTEX
  5
2A5
330
2A3
100
AcDbEntity
  8
LIVELLO_1
 62
     7
100
AcDbVertex
100
AcDb2dVertex
 10
121.1953956332783
 20
-165.2210758634057
 30
0.0
  0
SEQEND
  5
2A6
330
2A3
100
AcDbEntity
  8
LIVELLO_1
 62
     7
  0
POLYLINE
  5
2A7
330
1F
100
AcDbEntity
  8
LIVELLO_1
 62
     7
100
AcDb2dPolyline
 66
     1
 10
0.0
 20
0.0
 30
0.0
  0
VERTEX
  5
2A8
330
2A7
100
AcDbEntity
  8
LIVELLO_1
 62
     7
100
AcDbVertex
100
AcDb2dVertex
 10
121.6076386953796
 20
-156.8865927516797
 30
0.0
  0
VERTEX
  5
2A9
330
2A7
100
AcDbEntity
  8
LIVELLO_1
 62
     7
100
AcDbVertex
100
AcDb2dVertex
 10
147.4596896285089
 20
-156.435326468427
 30
0.0
  0
SEQEND
  5
2AA
330
2A7
100
AcDbEntity
  8
LIVELLO_1
 62
     7
  0
POLYLINE
  5
2AB
330
1F
100
AcDbEntity
  8
LIVELLO_1
 62
     7
100
AcDb2dPolyline
 66
     1
 10
0.0
 20
0.0
 30
0.0
  0
VERTEX
  5
2AC
330
2AB
100
AcDbEntity
  8
LIVELLO_1
 62
     7
100
AcDbVertex
100
AcDb2dVertex
 10
121.1953956332783
 20
-156.8937835474892
 30
0.0
  0
VERTEX
  5
2AD
330
2AB
100
AcDbEntity
  8
LIVELLO_1
 62
     7
100
AcDbVertex
100
AcDb2dVertex
 10
121.5555492720893
 20
-156.8874696779946
 30
0.0
  0
SEQEND
  5
2AE
330
2AB
100
AcDbEntity
  8
LIVELLO_1
 62
     7
  0
POLYLINE
  5
2AF
330
1F
100
AcDbEntity
  8
LIVELLO_1
 62
     7
100
AcDb2dPolyline
 66
     1
 10
0.0
 20
0.0
 30
0.0
  0
VERTEX
  5
2B0
330
2AF
100
AcDbEntity
  8
LIVELLO_1
 62
     7
100
AcDbVertex
100
AcDb2dVertex
 10
145.1357471931254
 20
-109.415414222504
 30
0.0
  0
VERTEX
  5
2B1
330
2AF
100
AcDbEntity
  8
LIVELLO_1
 62
     7
100
AcDbVertex
100
AcDb2dVertex
 10
144.7519165437255
 20
-109.415414222504
 30
0.0
  0
SEQEND
  5
2B2
330
2AF
100
AcDbEntity
  8
LIVELLO_1
 62
     7
  0
SPLINE
  5
2B3
330
1F
100
AcDbEntity
  8
LIVELLO_1
 62
     7
100
AcDbSpline
210
0.0
220
0.0
230
1.0
 70
     8
 71
     3
 72
     8
 73
     4
 74
     0
 42
0.0000000001
 43
0.0000000001
 12
1.0
 22
0.0
 32
0.0
 13
1.0
 23
0.0
 33
0.0
 40
0.0
 40
0.0
 40
0.0
 40
0.0
 40
1.0
 40
1.0
 40
1.0
 40
1.0
 10
129.2598731316859
 20
-139.1521610518292
 30
0.0
 10
129.280217822263
 20
-139.1522487444602
 30
0.0
 10
129.3005625128393
 20
-139.1524241297247
 30
0.0
 10
129.3209072034228
 20
-139.1525118223557
 30
0.0
  0
SPLINE
  5
2B4
330
1F
100
AcDbEntity
  8
LIVELLO_1
 62
     7
100
AcDbSpline
210
0.0
220
0.0
230
1.0
 70
     8
 71
     3
 72
     8
 73
     4
 74
     0
 42
0.0000000001
 43
0.0000000001
 12
1.0
 22
0.0
 32
0.0
 13
1.0
 23
0.0
 33
0.0
 40
0.0
 40
0.0
 40
0.0
 40
0.0
 40
1.0
 40
1.0
 40
1.0
 40
1.0
 10
134.3534996499046
 20
-139.1521610518292
 30
0.0
 10
134.3331549593275
 20
-139.1522487444602
 30
0.0
 10
134.3128102687512
 20
-139.1524241297247
 30
0.0
 10
134.2924655781741
 20
-139.1525118223557
 30
0.0
  0
POLYLINE
  5
2B5
330
1F
100
AcDbEntity
  8
LIVELLO_1
 62
     7
100
AcDb2dPolyline
 66
     1
 10
0.0
 20
0.0
 30
0.0
  0
VERTEX
  5
2B6
330
2B5
100
AcDbEntity
  8
LIVELLO_1
 62
     7
100
AcDbVertex
100
AcDb2dVertex
 10
127.829430921733
 20
-137.298338815534
 30
0.0
  0
VERTEX
  5
2B7
330
2B5
100
AcDbEntity
  8
LIVELLO_1
 62
     7
100
AcDbVertex
100
AcDb2dVertex
 10
127.829430921733
 20
-140.6940605968028
 30
0.0
  0
SEQEND
  5
2B8
330
2B5
100
AcDbEntity
  8
LIVELLO_1
 62
     7
  0
POLYLINE
  5
2B9
330
1F
100
AcDbEntity
  8
LIVELLO_1
 62
     7
100
AcDb2dPolyline
 66
     1
 10
0.0
 20
0.0
 30
0.0
  0
VERTEX
  5
2BA
330
2B9
100
AcDbEntity
  8
LIVELLO_1
 62
     7
100
AcDbVertex
100
AcDb2dVertex
 10
135.7839418598633
 20
-137.1724998889
 30
0.0
  0
VERTEX
  5
2BB
330
2B9
100
AcDbEntity
  8
LIVELLO_1
 62
     7
100
AcDbVertex
100
AcDb2dVertex
 10
135.7839418598633
 20
-140.8198118308097
 30
0.0
  0
SEQEND
  5
2BC
330
2B9
100
AcDbEntity
  8
LIVELLO_1
 62
     7
  0
SPLINE
  5
2BD
330
1F
100
AcDbEntity
  8
LIVELLO_1
 62
     7
100
AcDbSpline
210
0.0
220
0.0
230
1.0
 70
     8
 71
     3
 72
     8
 73
     4
 74
     0
 42
0.0000000001
 43
0.0000000001
 12
1.0
 22
0.0
 32
0.0
 13
1.0
 23
0.0
 33
0.0
 40
0.0
 40
0.0
 40
0.0
 40
0.0
 40
1.0
 40
1.0
 40
1.0
 40
1.0
 10
131.2735590357538
 20
-135.0755059846188
 30
0.0
 10
131.2580374399242
 20
-135.0755059846188
 30
0.0
 10
131.2428666146237
 20
-135.076909066726
 30
0.0
 10
131.2276080966897
 20
-135.0798029235772
 30
0.0
  0
SPLINE
  5
2BE
330
1F
100
AcDbEntity
  8
LIVELLO_1
 62
     7
100
AcDbSpline
210
0.0
220
0.0
230
1.0
 70
     8
 71
     3
 72
     8
 73
     4
 74
     0
 42
0.0000000001
 43
0.0000000001
 12
1.0
 22
0.0
 32
0.0
 13
1.0
 23
0.0
 33
0.0
 40
0.0
 40
0.0
 40
0.0
 40
0.0
 40
1.0
 40
1.0
 40
1.0
 40
1.0
 10
131.2276080966897
 20
-135.0798029235772
 30
0.0
 10
129.7470057013452
 20
-135.3581393369168
 30
0.0
 10
128.6744371217754
 20
-136.6513425781014
 30
0.0
 10
128.6746125070367
 20
-138.1579019924601
 30
0.0
  0
POLYLINE
  5
2BF
330
1F
100
AcDbEntity
  8
LIVELLO_1
 62
     7
100
AcDb2dPolyline
 66
     1
 10
0.0
 20
0.0
 30
0.0
  0
VERTEX
  5
2C0
330
2BF
100
AcDbEntity
  8
LIVELLO_1
 62
     7
100
AcDbVertex
100
AcDb2dVertex
 10
128.6746125070367
 20
-138.1579019924601
 30
0.0
  0
VERTEX
  5
2C1
330
2BF
100
AcDbEntity
  8
LIVELLO_1
 62
     7
100
AcDbVertex
100
AcDb2dVertex
 10
128.6746125070367
 20
-140.1465078038325
 30
0.0
  0
SEQEND
  5
2C2
330
2BF
100
AcDbEntity
  8
LIVELLO_1
 62
     7
  0
SPLINE
  5
2C3
330
1F
100
AcDbEntity
  8
LIVELLO_1
 62
     7
100
AcDbSpline
210
0.0
220
0.0
230
1.0
 70
     8
 71
     3
 72
     8
 73
     4
 74
     0
 42
0.0000000001
 43
0.0000000001
 12
1.0
 22
0.0
 32
0.0
 13
1.0
 23
0.0
 33
0.0
 40
0.0
 40
0.0
 40
0.0
 40
0.0
 40
1.0
 40
1.0
 40
1.0
 40
1.0
 10
128.6746125070367
 20
-140.1465078038325
 30
0.0
 10
128.6756648186206
 20
-141.6526287550331
 30
0.0
 10
129.7476195497711
 20
-142.9451304551618
 30
0.0
 10
131.2276080966897
 20
-143.2246068727148
 30
0.0
  0
SPLINE
  5
2C4
330
1F
100
AcDbEntity
  8
LIVELLO_1
 62
     7
100
AcDbSpline
210
0.0
220
0.0
230
1.0
 70
     8
 71
     3
 72
     8
 73
     4
 74
     0
 42
0.0000000001
 43
0.0000000001
 12
1.0
 22
0.0
 32
0.0
 13
1.0
 23
0.0
 33
0.0
 40
0.0
 40
0.0
 40
0.0
 40
0.0
 40
1.0
 40
1.0
 40
1.0
 40
1.0
 10
131.2276080966897
 20
-143.2246068727148
 30
0.0
 10
131.2428666146237
 20
-143.2274130369324
 30
0.0
 10
131.2580374399242
 20
-143.2289038116731
 30
0.0
 10
131.2735590357538
 20
-143.2289038116731
 30
0.0
  0
POLYLINE
  5
2C5
330
1F
100
AcDbEntity
  8
LIVELLO_1
 62
     7
100
AcDb2dPolyline
 66
     1
 10
0.0
 20
0.0
 30
0.0
  0
VERTEX
  5
2C6
330
2C5
100
AcDbEntity
  8
LIVELLO_1
 62
     7
100
AcDbVertex
100
AcDb2dVertex
 10
131.2735590357538
 20
-143.2289038116731
 30
0.0
  0
VERTEX
  5
2C7
330
2C5
100
AcDbEntity
  8
LIVELLO_1
 62
     7
100
AcDbVertex
100
AcDb2dVertex
 10
132.3398137458367
 20
-143.2289038116731
 30
0.0
  0
SEQEND
  5
2C8
330
2C5
100
AcDbEntity
  8
LIVELLO_1
 62
     7
  0
SPLINE
  5
2C9
330
1F
100
AcDbEntity
  8
LIVELLO_1
 62
     7
100
AcDbSpline
210
0.0
220
0.0
230
1.0
 70
     8
 71
     3
 72
     8
 73
     4
 74
     0
 42
0.0000000001
 43
0.0000000001
 12
1.0
 22
0.0
 32
0.0
 13
1.0
 23
0.0
 33
0.0
 40
0.0
 40
0.0
 40
0.0
 40
0.0
 40
1.0
 40
1.0
 40
1.0
 40
1.0
 10
132.3398137458367
 20
-143.2289038116731
 30
0.0
 10
132.3553353416663
 20
-143.2289038116731
 30
0.0
 10
132.3705938596003
 20
-143.2274130369324
 30
0.0
 10
132.3857646849008
 20
-143.2246068727148
 30
0.0
  0
SPLINE
  5
2CA
330
1F
100
AcDbEntity
  8
LIVELLO_1
 62
     7
100
AcDbSpline
210
0.0
220
0.0
230
1.0
 70
     8
 71
     3
 72
     8
 73
     4
 74
     0
 42
0.0000000001
 43
0.0000000001
 12
1.0
 22
0.0
 32
0.0
 13
1.0
 23
0.0
 33
0.0
 40
0.0
 40
0.0
 40
0.0
 40
0.0
 40
1.0
 40
1.0
 40
1.0
 40
1.0
 10
132.3857646849008
 20
-143.2246068727148
 30
0.0
 10
133.8659286170872
 20
-142.9453935330569
 30
0.0
 10
134.9380587334996
 20
-141.6527164476641
 30
0.0
 10
134.9387602745538
 20
-140.1465078038325
 30
0.0
  0
POLYLINE
  5
2CB
330
1F
100
AcDbEntity
  8
LIVELLO_1
 62
     7
100
AcDb2dPolyline
 66
     1
 10
0.0
 20
0.0
 30
0.0
  0
VERTEX
  5
2CC
330
2CB
100
AcDbEntity
  8
LIVELLO_1
 62
     7
100
AcDbVertex
100
AcDb2dVertex
 10
134.9387602745538
 20
-140.1465078038325
 30
0.0
  0
VERTEX
  5
2CD
330
2CB
100
AcDbEntity
  8
LIVELLO_1
 62
     7
100
AcDbVertex
100
AcDb2dVertex
 10
134.9387602745538
 20
-138.1579019924601
 30
0.0
  0
SEQEND
  5
2CE
330
2CB
100
AcDbEntity
  8
LIVELLO_1
 62
     7
  0
SPLINE
  5
2CF
330
1F
100
AcDbEntity
  8
LIVELLO_1
 62
     7
100
AcDbSpline
210
0.0
220
0.0
230
1.0
 70
     8
 71
     3
 72
     8
 73
     4
 74
     0
 42
0.0000000001
 43
0.0000000001
 12
1.0
 22
0.0
 32
0.0
 13
1.0
 23
0.0
 33
0.0
 40
0.0
 40
0.0
 40
0.0
 40
0.0
 40
1.0
 40
1.0
 40
1.0
 40
1.0
 10
134.9387602745538
 20
-138.1579019924601
 30
0.0
 10
134.9390233524493
 20
-136.6513425781014
 30
0.0
 10
133.8664547728795
 20
-135.3581393369168
 30
0.0
 10
132.3857646849008
 20
-135.0798029235772
 30
0.0
  0
SPLINE
  5
2D0
330
1F
100
AcDbEntity
  8
LIVELLO_1
 62
     7
100
AcDbSpline
210
0.0
220
0.0
230
1.0
 70
     8
 71
     3
 72
     8
 73
     4
 74
     0
 42
0.0000000001
 43
0.0000000001
 12
1.0
 22
0.0
 32
0.0
 13
1.0
 23
0.0
 33
0.0
 40
0.0
 40
0.0
 40
0.0
 40
0.0
 40
1.0
 40
1.0
 40
1.0
 40
1.0
 10
132.3857646849008
 20
-135.0798029235772
 30
0.0
 10
132.3705938596003
 20
-135.076909066726
 30
0.0
 10
132.3553353416663
 20
-135.0755059846188
 30
0.0
 10
132.3398137458367
 20
-135.0755059846188
 30
0.0
  0
POLYLINE
  5
2D1
330
1F
100
AcDbEntity
  8
LIVELLO_1
 62
     7
100
AcDb2dPolyline
 66
     1
 10
0.0
 20
0.0
 30
0.0
  0
VERTEX
  5
2D2
330
2D1
100
AcDbEntity
  8
LIVELLO_1
 62
     7
100
AcDbVertex
100
AcDb2dVertex
 10
132.3398137458367
 20
-135.0755059846188
 30
0.0
  0
VERTEX
  5
2D3
330
2D1
100
AcDbEntity
  8
LIVELLO_1
 62
     7
100
AcDbVertex
100
AcDb2dVertex
 10
131.2735590357538
 20
-135.0755059846188
 30
0.0
  0
SEQEND
  5
2D4
330
2D1
100
AcDbEntity
  8
LIVELLO_1
 62
     7
  0
POLYLINE
  5
2D5
330
1F
100
AcDbEntity
  8
LIVELLO_1
 62
     7
100
AcDb2dPolyline
 66
     1
 10
0.0
 20
0.0
 30
0.0
  0
VERTEX
  5
2D6
330
2D5
100
AcDbEntity
  8
LIVELLO_1
 62
     7
100
AcDbVertex
100
AcDb2dVertex
 10
129.0723862848918
 20
-138.279356287505
 30
0.0
  0
VERTEX
  5
2D7
330
2D5
100
AcDbEntity
  8
LIVELLO_1
 62
     7
100
AcDbVertex
100
AcDb2dVertex
 10
129.0723862848918
 20
-139.8929884052928
 30
0.0
  0
SEQEND
  5
2D8
330
2D5
100
AcDbEntity
  8
LIVELLO_1
 62
     7
  0
POLYLINE
  5
2D9
330
1F
100
AcDbEntity
  8
LIVELLO_1
 62
     7
100
AcDb2dPolyline
 66
     1
 10
0.0
 20
0.0
 30
0.0
  0
VERTEX
  5
2DA
330
2D9
100
AcDbEntity
  8
LIVELLO_1
 62
     7
100
AcDbVertex
100
AcDb2dVertex
 10
134.5410741893329
 20
-140.0249658161563
 30
0.0
  0
VERTEX
  5
2DB
330
2D9
100
AcDbEntity
  8
LIVELLO_1
 62
     7
100
AcDbVertex
100
AcDb2dVertex
 10
134.5410741893329
 20
-138.4114213909992
 30
0.0
  0
SEQEND
  5
2DC
330
2D9
100
AcDbEntity
  8
LIVELLO_1
 62
     7
  0
SPLINE
  5
2DD
330
1F
100
AcDbEntity
  8
LIVELLO_1
 62
     7
100
AcDbSpline
210
0.0
220
0.0
230
1.0
 70
     8
 71
     3
 72
    11
 73
     7
 74
     0
 42
0.0000000001
 43
0.0000000001
 12
1.0
 22
0.0
 32
0.0
 13
1.0
 23
0.0
 33
0.0
 40
0.0
 40
0.0
 40
0.0
 40
0.0
 40
1.0
 40
1.0
 40
1.0
 40
2.0
 40
2.0
 40
2.0
 40
2.0
 10
134.2924655781741
 20
-140.1465078038325
 30
0.0
 10
134.2922901929058
 20
-141.5192482620598
 30
0.0
 10
133.1793830027122
 20
-142.6318923743643
 30
0.0
 10
131.806730237112
 20
-142.6318923743643
 30
0.0
 10
130.4339897788847
 20
-142.6318923743643
 30
0.0
 10
129.3211702813189
 20
-141.5192482620598
 30
0.0
 10
129.3209072034228
 20
-140.1465078038325
 30
0.0
  0
POLYLINE
  5
2DE
330
1F
100
AcDbEntity
  8
LIVELLO_1
 62
     7
100
AcDb2dPolyline
 66
     1
 10
0.0
 20
0.0
 30
0.0
  0
VERTEX
  5
2DF
330
2DE
100
AcDbEntity
  8
LIVELLO_1
 62
     7
100
AcDbVertex
100
AcDb2dVertex
 10
129.3209072034228
 20
-140.1465078038325
 30
0.0
  0
VERTEX
  5
2E0
330
2DE
100
AcDbEntity
  8
LIVELLO_1
 62
     7
100
AcDbVertex
100
AcDb2dVertex
 10
129.3209072034228
 20
-138.1579019924601
 30
0.0
  0
SEQEND
  5
2E1
330
2DE
100
AcDbEntity
  8
LIVELLO_1
 62
     7
  0
SPLINE
  5
2E2
330
1F
100
AcDbEntity
  8
LIVELLO_1
 62
     7
100
AcDbSpline
210
0.0
220
0.0
230
1.0
 70
     8
 71
     3
 72
    11
 73
     7
 74
     0
 42
0.0000000001
 43
0.0000000001
 12
1.0
 22
0.0
 32
0.0
 13
1.0
 23
0.0
 33
0.0
 40
0.0
 40
0.0
 40
0.0
 40
0.0
 40
1.0
 40
1.0
 40
1.0
 40
2.0
 40
2.0
 40
2.0
 40
2.0
 10
129.3209072034228
 20
-138.1579019924601
 30
0.0
 10
129.3210825886847
 20
-136.7851615342292
 30
0.0
 10
130.4339020862505
 20
-135.6723420366631
 30
0.0
 10
131.806730237112
 20
-135.6723420366631
 30
0.0
 10
133.17947069534
 20
-135.6723420366631
 30
0.0
 10
134.29237788554
 20
-136.7851615342292
 30
0.0
 10
134.2924655781741
 20
-138.1579019924601
 30
0.0
  0
POLYLINE
  5
2E3
330
1F
100
AcDbEntity
  8
LIVELLO_1
 62
     7
100
AcDb2dPolyline
 66
     1
 10
0.0
 20
0.0
 30
0.0
  0
VERTEX
  5
2E4
330
2E3
100
AcDbEntity
  8
LIVELLO_1
 62
     7
100
AcDbVertex
100
AcDb2dVertex
 10
134.2924655781741
 20
-138.1579019924601
 30
0.0
  0
VERTEX
  5
2E5
330
2E3
100
AcDbEntity
  8
LIVELLO_1
 62
     7
100
AcDbVertex
100
AcDb2dVertex
 10
134.2924655781741
 20
-140.1465078038325
 30
0.0
  0
SEQEND
  5
2E6
330
2E3
100
AcDbEntity
  8
LIVELLO_1
 62
     7
  0
POLYLINE
  5
2E7
330
1F
100
AcDbEntity
  8
LIVELLO_1
 62
     7
100
AcDb2dPolyline
 66
     1
 10
0.0
 20
0.0
 30
0.0
  0
VERTEX
  5
2E8
330
2E7
100
AcDbEntity
  8
LIVELLO_1
 62
     7
100
AcDbVertex
100
AcDb2dVertex
 10
76.57571841241294
 20
-185.480178432838
 30
0.0
  0
VERTEX
  5
2E9
330
2E7
100
AcDbEntity
  8
LIVELLO_1
 62
     7
100
AcDbVertex
100
AcDb2dVertex
 10
76.57571841241294
 20
-120.8500072536959
 30
0.0
  0
SEQEND
  5
2EA
330
2E7
100
AcDbEntity
  8
LIVELLO_1
 62
     7
  0
POLYLINE
  5
2EB
330
1F
100
AcDbEntity
  8
LIVELLO_1
 62
     7
100
AcDb2dPolyline
 66
     1
 10
0.0
 20
0.0
 30
0.0
  0
VERTEX
  5
2EC
330
2EB
100
AcDbEntity
  8
LIVELLO_1
 62
     7
100
AcDbVertex
100
AcDb2dVertex
 10
67.502687955648
 20
-120.8500072536959
 30
0.0
  0
VERTEX
  5
2ED
330
2EB
100
AcDbEntity
  8
LIVELLO_1
 62
     7
100
AcDbVertex
100
AcDb2dVertex
 10
68.99416423733106
 20
-120.8500072536959
 30
0.0
  0
SEQEND
  5
2EE
330
2EB
100
AcDbEntity
  8
LIVELLO_1
 62
     7
  0
POLYLINE
  5
2EF
330
1F
100
AcDbEntity
  8
LIVELLO_1
 62
     7
100
AcDb2dPolyline
 66
     1
 10
0.0
 20
0.0
 30
0.0
  0
VERTEX
  5
2F0
330
2EF
100
AcDbEntity
  8
LIVELLO_1
 62
     7
100
AcDbVertex
100
AcDb2dVertex
 10
69.98842329670339
 20
-120.8500072536959
 30
0.0
  0
VERTEX
  5
2F1
330
2EF
100
AcDbEntity
  8
LIVELLO_1
 62
     7
100
AcDbVertex
100
AcDb2dVertex
 10
76.57571841241294
 20
-120.8500072536959
 30
0.0
  0
SEQEND
  5
2F2
330
2EF
100
AcDbEntity
  8
LIVELLO_1
 62
     7
  0
POLYLINE
  5
2F3
330
1F
100
AcDbEntity
  8
LIVELLO_1
 62
     7
100
AcDb2dPolyline
 66
     1
 10
0.0
 20
0.0
 30
0.0
  0
VERTEX
  5
2F4
330
2F3
100
AcDbEntity
  8
LIVELLO_1
 62
     7
100
AcDbVertex
100
AcDb2dVertex
 10
67.502687955648
 20
-121.9686144649618
 30
0.0
  0
VERTEX
  5
2F5
330
2F3
100
AcDbEntity
  8
LIVELLO_1
 62
     7
100
AcDbVertex
100
AcDb2dVertex
 10
67.502687955648
 20
-120.8500072536959
 30
0.0
  0
SEQEND
  5
2F6
330
2F3
100
AcDbEntity
  8
LIVELLO_1
 62
     7
  0
POLYLINE
  5
2F7
330
1F
100
AcDbEntity
  8
LIVELLO_1
 62
     7
100
AcDb2dPolyline
 66
     1
 10
0.0
 20
0.0
 30
0.0
  0
VERTEX
  5
2F8
330
2F7
100
AcDbEntity
  8
LIVELLO_1
 62
     7
100
AcDbVertex
100
AcDb2dVertex
 10
68.99416423733106
 20
-120.8500072536959
 30
0.0
  0
VERTEX
  5
2F9
330
2F7
100
AcDbEntity
  8
LIVELLO_1
 62
     7
100
AcDbVertex
100
AcDb2dVertex
 10
68.99416423733106
 20
-121.9686144649618
 30
0.0
  0
SEQEND
  5
2FA
330
2F7
100
AcDbEntity
  8
LIVELLO_1
 62
     7
  0
POLYLINE
  5
2FB
330
1F
100
AcDbEntity
  8
LIVELLO_1
 62
     7
100
AcDb2dPolyline
 66
     1
 10
0.0
 20
0.0
 30
0.0
  0
VERTEX
  5
2FC
330
2FB
100
AcDbEntity
  8
LIVELLO_1
 62
     7
100
AcDbVertex
100
AcDb2dVertex
 10
68.99416423733106
 20
-121.9686144649618
 30
0.0
  0
VERTEX
  5
2FD
330
2FB
100
AcDbEntity
  8
LIVELLO_1
 62
     7
100
AcDbVertex
100
AcDb2dVertex
 10
67.502687955648
 20
-121.9686144649618
 30
0.0
  0
SEQEND
  5
2FE
330
2FB
100
AcDbEntity
  8
LIVELLO_1
 62
     7
  0
POLYLINE
  5
2FF
330
1F
100
AcDbEntity
  8
LIVELLO_1
 62
     7
100
AcDb2dPolyline
 66
     1
 10
0.0
 20
0.0
 30
0.0
  0
VERTEX
  5
300
330
2FF
100
AcDbEntity
  8
LIVELLO_1
 62
     7
100
AcDbVertex
100
AcDb2dVertex
 10
67.502687955648
 20
-185.480178432838
 30
0.0
  0
VERTEX
  5
301
330
2FF
100
AcDbEntity
  8
LIVELLO_1
 62
     7
100
AcDbVertex
100
AcDb2dVertex
 10
67.502687955648
 20
-184.3615712215635
 30
0.0
  0
SEQEND
  5
302
330
2FF
100
AcDbEntity
  8
LIVELLO_1
 62
     7
  0
POLYLINE
  5
303
330
1F
100
AcDbEntity
  8
LIVELLO_1
 62
     7
100
AcDb2dPolyline
 66
     1
 10
0.0
 20
0.0
 30
0.0
  0
VERTEX
  5
304
330
303
100
AcDbEntity
  8
LIVELLO_1
 62
     7
100
AcDbVertex
100
AcDb2dVertex
 10
67.502687955648
 20
-184.3615712215635
 30
0.0
  0
VERTEX
  5
305
330
303
100
AcDbEntity
  8
LIVELLO_1
 62
     7
100
AcDbVertex
100
AcDb2dVertex
 10
67.502687955648
 20
-121.9686144649618
 30
0.0
  0
SEQEND
  5
306
330
303
100
AcDbEntity
  8
LIVELLO_1
 62
     7
  0
POLYLINE
  5
307
330
1F
100
AcDbEntity
  8
LIVELLO_1
 62
     7
100
AcDb2dPolyline
 66
     1
 10
0.0
 20
0.0
 30
0.0
  0
VERTEX
  5
308
330
307
100
AcDbEntity
  8
LIVELLO_1
 62
     7
100
AcDbVertex
100
AcDb2dVertex
 10
69.98842329670339
 20
-121.9686144649618
 30
0.0
  0
VERTEX
  5
309
330
307
100
AcDbEntity
  8
LIVELLO_1
 62
     7
100
AcDbVertex
100
AcDb2dVertex
 10
71.72850818955128
 20
-121.9686144649618
 30
0.0
  0
SEQEND
  5
30A
330
307
100
AcDbEntity
  8
LIVELLO_1
 62
     7
  0
POLYLINE
  5
30B
330
1F
100
AcDbEntity
  8
LIVELLO_1
 62
     7
100
AcDb2dPolyline
 66
     1
 10
0.0
 20
0.0
 30
0.0
  0
VERTEX
  5
30C
330
30B
100
AcDbEntity
  8
LIVELLO_1
 62
     7
100
AcDbVertex
100
AcDb2dVertex
 10
71.47989957839287
 20
-122.7143526058061
 30
0.0
  0
VERTEX
  5
30D
330
30B
100
AcDbEntity
  8
LIVELLO_1
 62
     7
100
AcDbVertex
100
AcDb2dVertex
 10
71.47989957839287
 20
-121.9686144649618
 30
0.0
  0
SEQEND
  5
30E
330
30B
100
AcDbEntity
  8
LIVELLO_1
 62
     7
  0
POLYLINE
  5
30F
330
1F
100
AcDbEntity
  8
LIVELLO_1
 62
     7
100
AcDb2dPolyline
 66
     1
 10
0.0
 20
0.0
 30
0.0
  0
VERTEX
  5
310
330
30F
100
AcDbEntity
  8
LIVELLO_1
 62
     7
100
AcDbVertex
100
AcDb2dVertex
 10
71.47989957839287
 20
-125.2000879468644
 30
0.0
  0
VERTEX
  5
311
330
30F
100
AcDbEntity
  8
LIVELLO_1
 62
     7
100
AcDbVertex
100
AcDb2dVertex
 10
71.47989957839287
 20
-122.7143526058061
 30
0.0
  0
SEQEND
  5
312
330
30F
100
AcDbEntity
  8
LIVELLO_1
 62
     7
  0
POLYLINE
  5
313
330
1F
100
AcDbEntity
  8
LIVELLO_1
 62
     7
100
AcDb2dPolyline
 66
     1
 10
0.0
 20
0.0
 30
0.0
  0
VERTEX
  5
314
330
313
100
AcDbEntity
  8
LIVELLO_1
 62
     7
100
AcDbVertex
100
AcDb2dVertex
 10
72.72276724892393
 20
-122.7143526058061
 30
0.0
  0
VERTEX
  5
315
330
313
100
AcDbEntity
  8
LIVELLO_1
 62
     7
100
AcDbVertex
100
AcDb2dVertex
 10
71.47989957839287
 20
-122.7143526058061
 30
0.0
  0
SEQEND
  5
316
330
313
100
AcDbEntity
  8
LIVELLO_1
 62
     7
  0
POLYLINE
  5
317
330
1F
100
AcDbEntity
  8
LIVELLO_1
 62
     7
100
AcDb2dPolyline
 66
     1
 10
0.0
 20
0.0
 30
0.0
  0
VERTEX
  5
318
330
317
100
AcDbEntity
  8
LIVELLO_1
 62
     7
100
AcDbVertex
100
AcDb2dVertex
 10
71.47989957839287
 20
-183.6158330807214
 30
0.0
  0
VERTEX
  5
319
330
317
100
AcDbEntity
  8
LIVELLO_1
 62
     7
100
AcDbVertex
100
AcDb2dVertex
 10
71.47989957839287
 20
-181.13009773966
 30
0.0
  0
SEQEND
  5
31A
330
317
100
AcDbEntity
  8
LIVELLO_1
 62
     7
  0
POLYLINE
  5
31B
330
1F
100
AcDbEntity
  8
LIVELLO_1
 62
     7
100
AcDb2dPolyline
 66
     1
 10
0.0
 20
0.0
 30
0.0
  0
VERTEX
  5
31C
330
31B
100
AcDbEntity
  8
LIVELLO_1
 62
     7
100
AcDbVertex
100
AcDb2dVertex
 10
71.10703050797186
 20
-180.757228669239
 30
0.0
  0
VERTEX
  5
31D
330
31B
100
AcDbEntity
  8
LIVELLO_1
 62
     7
100
AcDbVertex
100
AcDb2dVertex
 10
68.86981608543492
 20
-180.757228669239
 30
0.0
  0
SEQEND
  5
31E
330
31B
100
AcDbEntity
  8
LIVELLO_1
 62
     7
  0
POLYLINE
  5
31F
330
1F
100
AcDbEntity
  8
LIVELLO_1
 62
     7
100
AcDb2dPolyline
 66
     1
 10
0.0
 20
0.0
 30
0.0
  0
VERTEX
  5
320
330
31F
100
AcDbEntity
  8
LIVELLO_1
 62
     7
100
AcDbVertex
100
AcDb2dVertex
 10
68.86981608543492
 20
-180.757228669239
 30
0.0
  0
VERTEX
  5
321
330
31F
100
AcDbEntity
  8
LIVELLO_1
 62
     7
100
AcDbVertex
100
AcDb2dVertex
 10
68.86981608543492
 20
-125.5729570172886
 30
0.0
  0
SEQEND
  5
322
330
31F
100
AcDbEntity
  8
LIVELLO_1
 62
     7
  0
POLYLINE
  5
323
330
1F
100
AcDbEntity
  8
LIVELLO_1
 62
     7
100
AcDb2dPolyline
 66
     1
 10
0.0
 20
0.0
 30
0.0
  0
VERTEX
  5
324
330
323
100
AcDbEntity
  8
LIVELLO_1
 62
     7
100
AcDbVertex
100
AcDb2dVertex
 10
68.86981608543492
 20
-125.5729570172886
 30
0.0
  0
VERTEX
  5
325
330
323
100
AcDbEntity
  8
LIVELLO_1
 62
     7
100
AcDbVertex
100
AcDb2dVertex
 10
71.10703050797186
 20
-125.5729570172886
 30
0.0
  0
SEQEND
  5
326
330
323
100
AcDbEntity
  8
LIVELLO_1
 62
     7
  0
POLYLINE
  5
327
330
1F
100
AcDbEntity
  8
LIVELLO_1
 62
     7
100
AcDb2dPolyline
 66
     1
 10
0.0
 20
0.0
 30
0.0
  0
VERTEX
  5
328
330
327
100
AcDbEntity
  8
LIVELLO_1
 62
     7
100
AcDbVertex
100
AcDb2dVertex
 10
73.59285354166175
 20
-181.2543581989287
 30
0.0
  0
VERTEX
  5
329
330
327
100
AcDbEntity
  8
LIVELLO_1
 62
     7
100
AcDbVertex
100
AcDb2dVertex
 10
73.59285354166175
 20
-179.7628819172389
 30
0.0
  0
SEQEND
  5
32A
330
327
100
AcDbEntity
  8
LIVELLO_1
 62
     7
  0
POLYLINE
  5
32B
330
1F
100
AcDbEntity
  8
LIVELLO_1
 62
     7
100
AcDb2dPolyline
 66
     1
 10
0.0
 20
0.0
 30
0.0
  0
VERTEX
  5
32C
330
32B
100
AcDbEntity
  8
LIVELLO_1
 62
     7
100
AcDbVertex
100
AcDb2dVertex
 10
73.59285354166175
 20
-179.7628819172389
 30
0.0
  0
VERTEX
  5
32D
330
32B
100
AcDbEntity
  8
LIVELLO_1
 62
     7
100
AcDbVertex
100
AcDb2dVertex
 10
72.10137725997838
 20
-179.7628819172389
 30
0.0
  0
SEQEND
  5
32E
330
32B
100
AcDbEntity
  8
LIVELLO_1
 62
     7
  0
POLYLINE
  5
32F
330
1F
100
AcDbEntity
  8
LIVELLO_1
 62
     7
100
AcDb2dPolyline
 66
     1
 10
0.0
 20
0.0
 30
0.0
  0
VERTEX
  5
330
330
32F
100
AcDbEntity
  8
LIVELLO_1
 62
     7
100
AcDbVertex
100
AcDb2dVertex
 10
72.10137725997838
 20
-179.7628819172389
 30
0.0
  0
VERTEX
  5
331
330
32F
100
AcDbEntity
  8
LIVELLO_1
 62
     7
100
AcDbVertex
100
AcDb2dVertex
 10
72.10137725997838
 20
-181.2543581989287
 30
0.0
  0
SEQEND
  5
332
330
32F
100
AcDbEntity
  8
LIVELLO_1
 62
     7
  0
POLYLINE
  5
333
330
1F
100
AcDbEntity
  8
LIVELLO_1
 62
     7
100
AcDb2dPolyline
 66
     1
 10
0.0
 20
0.0
 30
0.0
  0
VERTEX
  5
334
330
333
100
AcDbEntity
  8
LIVELLO_1
 62
     7
100
AcDbVertex
100
AcDb2dVertex
 10
72.10137725997838
 20
-181.2543581989287
 30
0.0
  0
VERTEX
  5
335
330
333
100
AcDbEntity
  8
LIVELLO_1
 62
     7
100
AcDbVertex
100
AcDb2dVertex
 10
73.59285354166175
 20
-181.2543581989287
 30
0.0
  0
SEQEND
  5
336
330
333
100
AcDbEntity
  8
LIVELLO_1
 62
     7
  0
POLYLINE
  5
337
330
1F
100
AcDbEntity
  8
LIVELLO_1
 62
     7
100
AcDb2dPolyline
 66
     1
 10
0.0
 20
0.0
 30
0.0
  0
VERTEX
  5
338
330
337
100
AcDbEntity
  8
LIVELLO_1
 62
     7
100
AcDbVertex
100
AcDb2dVertex
 10
73.59285354166175
 20
-176.2827998241773
 30
0.0
  0
VERTEX
  5
339
330
337
100
AcDbEntity
  8
LIVELLO_1
 62
     7
100
AcDbVertex
100
AcDb2dVertex
 10
73.59285354166175
 20
-174.7913235424875
 30
0.0
  0
SEQEND
  5
33A
330
337
100
AcDbEntity
  8
LIVELLO_1
 62
     7
  0
POLYLINE
  5
33B
330
1F
100
AcDbEntity
  8
LIVELLO_1
 62
     7
100
AcDb2dPolyline
 66
     1
 10
0.0
 20
0.0
 30
0.0
  0
VERTEX
  5
33C
330
33B
100
AcDbEntity
  8
LIVELLO_1
 62
     7
100
AcDbVertex
100
AcDb2dVertex
 10
73.59285354166175
 20
-174.7913235424875
 30
0.0
  0
VERTEX
  5
33D
330
33B
100
AcDbEntity
  8
LIVELLO_1
 62
     7
100
AcDbVertex
100
AcDb2dVertex
 10
72.10137725997838
 20
-174.7913235424875
 30
0.0
  0
SEQEND
  5
33E
330
33B
100
AcDbEntity
  8
LIVELLO_1
 62
     7
  0
POLYLINE
  5
33F
330
1F
100
AcDbEntity
  8
LIVELLO_1
 62
     7
100
AcDb2dPolyline
 66
     1
 10
0.0
 20
0.0
 30
0.0
  0
VERTEX
  5
340
330
33F
100
AcDbEntity
  8
LIVELLO_1
 62
     7
100
AcDbVertex
100
AcDb2dVertex
 10
72.10137725997838
 20
-174.7913235424875
 30
0.0
  0
VERTEX
  5
341
330
33F
100
AcDbEntity
  8
LIVELLO_1
 62
     7
100
AcDbVertex
100
AcDb2dVertex
 10
72.10137725997838
 20
-176.2827998241773
 30
0.0
  0
SEQEND
  5
342
330
33F
100
AcDbEntity
  8
LIVELLO_1
 62
     7
  0
POLYLINE
  5
343
330
1F
100
AcDbEntity
  8
LIVELLO_1
 62
     7
100
AcDb2dPolyline
 66
     1
 10
0.0
 20
0.0
 30
0.0
  0
VERTEX
  5
344
330
343
100
AcDbEntity
  8
LIVELLO_1
 62
     7
100
AcDbVertex
100
AcDb2dVertex
 10
72.10137725997838
 20
-176.2827998241773
 30
0.0
  0
VERTEX
  5
345
330
343
100
AcDbEntity
  8
LIVELLO_1
 62
     7
100
AcDbVertex
100
AcDb2dVertex
 10
73.59285354166175
 20
-176.2827998241773
 30
0.0
  0
SEQEND
  5
346
330
343
100
AcDbEntity
  8
LIVELLO_1
 62
     7
  0
POLYLINE
  5
347
330
1F
100
AcDbEntity
  8
LIVELLO_1
 62
     7
100
AcDb2dPolyline
 66
     1
 10
0.0
 20
0.0
 30
0.0
  0
VERTEX
  5
348
330
347
100
AcDbEntity
  8
LIVELLO_1
 62
     7
100
AcDbVertex
100
AcDb2dVertex
 10
73.59285354166175
 20
-171.3112414494259
 30
0.0
  0
VERTEX
  5
349
330
347
100
AcDbEntity
  8
LIVELLO_1
 62
     7
100
AcDbVertex
100
AcDb2dVertex
 10
73.59285354166175
 20
-169.8197651677303
 30
0.0
  0
SEQEND
  5
34A
330
347
100
AcDbEntity
  8
LIVELLO_1
 62
     7
  0
POLYLINE
  5
34B
330
1F
100
AcDbEntity
  8
LIVELLO_1
 62
     7
100
AcDb2dPolyline
 66
     1
 10
0.0
 20
0.0
 30
0.0
  0
VERTEX
  5
34C
330
34B
100
AcDbEntity
  8
LIVELLO_1
 62
     7
100
AcDbVertex
100
AcDb2dVertex
 10
73.59285354166175
 20
-169.8197651677303
 30
0.0
  0
VERTEX
  5
34D
330
34B
100
AcDbEntity
  8
LIVELLO_1
 62
     7
100
AcDbVertex
100
AcDb2dVertex
 10
72.10137725997838
 20
-169.8197651677303
 30
0.0
  0
SEQEND
  5
34E
330
34B
100
AcDbEntity
  8
LIVELLO_1
 62
     7
  0
POLYLINE
  5
34F
330
1F
100
AcDbEntity
  8
LIVELLO_1
 62
     7
100
AcDb2dPolyline
 66
     1
 10
0.0
 20
0.0
 30
0.0
  0
VERTEX
  5
350
330
34F
100
AcDbEntity
  8
LIVELLO_1
 62
     7
100
AcDbVertex
100
AcDb2dVertex
 10
72.10137725997838
 20
-169.8197651677303
 30
0.0
  0
VERTEX
  5
351
330
34F
100
AcDbEntity
  8
LIVELLO_1
 62
     7
100
AcDbVertex
100
AcDb2dVertex
 10
72.10137725997838
 20
-171.3112414494259
 30
0.0
  0
SEQEND
  5
352
330
34F
100
AcDbEntity
  8
LIVELLO_1
 62
     7
  0
POLYLINE
  5
353
330
1F
100
AcDbEntity
  8
LIVELLO_1
 62
     7
100
AcDb2dPolyline
 66
     1
 10
0.0
 20
0.0
 30
0.0
  0
VERTEX
  5
354
330
353
100
AcDbEntity
  8
LIVELLO_1
 62
     7
100
AcDbVertex
100
AcDb2dVertex
 10
72.10137725997838
 20
-171.3112414494259
 30
0.0
  0
VERTEX
  5
355
330
353
100
AcDbEntity
  8
LIVELLO_1
 62
     7
100
AcDbVertex
100
AcDb2dVertex
 10
73.59285354166175
 20
-171.3112414494259
 30
0.0
  0
SEQEND
  5
356
330
353
100
AcDbEntity
  8
LIVELLO_1
 62
     7
  0
POLYLINE
  5
357
330
1F
100
AcDbEntity
  8
LIVELLO_1
 62
     7
100
AcDb2dPolyline
 66
     1
 10
0.0
 20
0.0
 30
0.0
  0
VERTEX
  5
358
330
357
100
AcDbEntity
  8
LIVELLO_1
 62
     7
100
AcDbVertex
100
AcDb2dVertex
 10
73.59285354166175
 20
-166.3396830746745
 30
0.0
  0
VERTEX
  5
359
330
357
100
AcDbEntity
  8
LIVELLO_1
 62
     7
100
AcDbVertex
100
AcDb2dVertex
 10
73.59285354166175
 20
-164.8482067929789
 30
0.0
  0
SEQEND
  5
35A
330
357
100
AcDbEntity
  8
LIVELLO_1
 62
     7
  0
POLYLINE
  5
35B
330
1F
100
AcDbEntity
  8
LIVELLO_1
 62
     7
100
AcDb2dPolyline
 66
     1
 10
0.0
 20
0.0
 30
0.0
  0
VERTEX
  5
35C
330
35B
100
AcDbEntity
  8
LIVELLO_1
 62
     7
100
AcDbVertex
100
AcDb2dVertex
 10
73.59285354166175
 20
-164.8482067929789
 30
0.0
  0
VERTEX
  5
35D
330
35B
100
AcDbEntity
  8
LIVELLO_1
 62
     7
100
AcDbVertex
100
AcDb2dVertex
 10
72.10137725997838
 20
-164.8482067929789
 30
0.0
  0
SEQEND
  5
35E
330
35B
100
AcDbEntity
  8
LIVELLO_1
 62
     7
  0
POLYLINE
  5
35F
330
1F
100
AcDbEntity
  8
LIVELLO_1
 62
     7
100
AcDb2dPolyline
 66
     1
 10
0.0
 20
0.0
 30
0.0
  0
VERTEX
  5
360
330
35F
100
AcDbEntity
  8
LIVELLO_1
 62
     7
100
AcDbVertex
100
AcDb2dVertex
 10
72.10137725997838
 20
-164.8482067929789
 30
0.0
  0
VERTEX
  5
361
330
35F
100
AcDbEntity
  8
LIVELLO_1
 62
     7
100
AcDbVertex
100
AcDb2dVertex
 10
72.10137725997838
 20
-166.3396830746745
 30
0.0
  0
SEQEND
  5
362
330
35F
100
AcDbEntity
  8
LIVELLO_1
 62
     7
  0
POLYLINE
  5
363
330
1F
100
AcDbEntity
  8
LIVELLO_1
 62
     7
100
AcDb2dPolyline
 66
     1
 10
0.0
 20
0.0
 30
0.0
  0
VERTEX
  5
364
330
363
100
AcDbEntity
  8
LIVELLO_1
 62
     7
100
AcDbVertex
100
AcDb2dVertex
 10
72.10137725997838
 20
-166.3396830746745
 30
0.0
  0
VERTEX
  5
365
330
363
100
AcDbEntity
  8
LIVELLO_1
 62
     7
100
AcDbVertex
100
AcDb2dVertex
 10
73.59285354166175
 20
-166.3396830746745
 30
0.0
  0
SEQEND
  5
366
330
363
100
AcDbEntity
  8
LIVELLO_1
 62
     7
  0
POLYLINE
  5
367
330
1F
100
AcDbEntity
  8
LIVELLO_1
 62
     7
100
AcDb2dPolyline
 66
     1
 10
0.0
 20
0.0
 30
0.0
  0
VERTEX
  5
368
330
367
100
AcDbEntity
  8
LIVELLO_1
 62
     7
100
AcDbVertex
100
AcDb2dVertex
 10
73.59285354166175
 20
-161.3681246999231
 30
0.0
  0
VERTEX
  5
369
330
367
100
AcDbEntity
  8
LIVELLO_1
 62
     7
100
AcDbVertex
100
AcDb2dVertex
 10
73.59285354166175
 20
-159.8766484182276
 30
0.0
  0
SEQEND
  5
36A
330
367
100
AcDbEntity
  8
LIVELLO_1
 62
     7
  0
POLYLINE
  5
36B
330
1F
100
AcDbEntity
  8
LIVELLO_1
 62
     7
100
AcDb2dPolyline
 66
     1
 10
0.0
 20
0.0
 30
0.0
  0
VERTEX
  5
36C
330
36B
100
AcDbEntity
  8
LIVELLO_1
 62
     7
100
AcDbVertex
100
AcDb2dVertex
 10
73.59285354166175
 20
-159.8766484182276
 30
0.0
  0
VERTEX
  5
36D
330
36B
100
AcDbEntity
  8
LIVELLO_1
 62
     7
100
AcDbVertex
100
AcDb2dVertex
 10
72.10137725997838
 20
-159.8766484182276
 30
0.0
  0
SEQEND
  5
36E
330
36B
100
AcDbEntity
  8
LIVELLO_1
 62
     7
  0
POLYLINE
  5
36F
330
1F
100
AcDbEntity
  8
LIVELLO_1
 62
     7
100
AcDb2dPolyline
 66
     1
 10
0.0
 20
0.0
 30
0.0
  0
VERTEX
  5
370
330
36F
100
AcDbEntity
  8
LIVELLO_1
 62
     7
100
AcDbVertex
100
AcDb2dVertex
 10
72.10137725997838
 20
-159.8766484182276
 30
0.0
  0
VERTEX
  5
371
330
36F
100
AcDbEntity
  8
LIVELLO_1
 62
     7
100
AcDbVertex
100
AcDb2dVertex
 10
72.10137725997838
 20
-161.3681246999231
 30
0.0
  0
SEQEND
  5
372
330
36F
100
AcDbEntity
  8
LIVELLO_1
 62
     7
  0
POLYLINE
  5
373
330
1F
100
AcDbEntity
  8
LIVELLO_1
 62
     7
100
AcDb2dPolyline
 66
     1
 10
0.0
 20
0.0
 30
0.0
  0
VERTEX
  5
374
330
373
100
AcDbEntity
  8
LIVELLO_1
 62
     7
100
AcDbVertex
100
AcDb2dVertex
 10
72.10137725997838
 20
-161.3681246999231
 30
0.0
  0
VERTEX
  5
375
330
373
100
AcDbEntity
  8
LIVELLO_1
 62
     7
100
AcDbVertex
100
AcDb2dVertex
 10
73.59285354166175
 20
-161.3681246999231
 30
0.0
  0
SEQEND
  5
376
330
373
100
AcDbEntity
  8
LIVELLO_1
 62
     7
  0
POLYLINE
  5
377
330
1F
100
AcDbEntity
  8
LIVELLO_1
 62
     7
100
AcDb2dPolyline
 66
     1
 10
0.0
 20
0.0
 30
0.0
  0
VERTEX
  5
378
330
377
100
AcDbEntity
  8
LIVELLO_1
 62
     7
100
AcDbVertex
100
AcDb2dVertex
 10
73.59285354166175
 20
-156.3965663251718
 30
0.0
  0
VERTEX
  5
379
330
377
100
AcDbEntity
  8
LIVELLO_1
 62
     7
100
AcDbVertex
100
AcDb2dVertex
 10
73.59285354166175
 20
-154.9050900434762
 30
0.0
  0
SEQEND
  5
37A
330
377
100
AcDbEntity
  8
LIVELLO_1
 62
     7
  0
POLYLINE
  5
37B
330
1F
100
AcDbEntity
  8
LIVELLO_1
 62
     7
100
AcDb2dPolyline
 66
     1
 10
0.0
 20
0.0
 30
0.0
  0
VERTEX
  5
37C
330
37B
100
AcDbEntity
  8
LIVELLO_1
 62
     7
100
AcDbVertex
100
AcDb2dVertex
 10
73.59285354166175
 20
-154.9050900434762
 30
0.0
  0
VERTEX
  5
37D
330
37B
100
AcDbEntity
  8
LIVELLO_1
 62
     7
100
AcDbVertex
100
AcDb2dVertex
 10
72.10137725997838
 20
-154.9050900434762
 30
0.0
  0
SEQEND
  5
37E
330
37B
100
AcDbEntity
  8
LIVELLO_1
 62
     7
  0
POLYLINE
  5
37F
330
1F
100
AcDbEntity
  8
LIVELLO_1
 62
     7
100
AcDb2dPolyline
 66
     1
 10
0.0
 20
0.0
 30
0.0
  0
VERTEX
  5
380
330
37F
100
AcDbEntity
  8
LIVELLO_1
 62
     7
100
AcDbVertex
100
AcDb2dVertex
 10
72.10137725997838
 20
-154.9050900434762
 30
0.0
  0
VERTEX
  5
381
330
37F
100
AcDbEntity
  8
LIVELLO_1
 62
     7
100
AcDbVertex
100
AcDb2dVertex
 10
72.10137725997838
 20
-156.3965663251718
 30
0.0
  0
SEQEND
  5
382
330
37F
100
AcDbEntity
  8
LIVELLO_1
 62
     7
  0
POLYLINE
  5
383
330
1F
100
AcDbEntity
  8
LIVELLO_1
 62
     7
100
AcDb2dPolyline
 66
     1
 10
0.0
 20
0.0
 30
0.0
  0
VERTEX
  5
384
330
383
100
AcDbEntity
  8
LIVELLO_1
 62
     7
100
AcDbVertex
100
AcDb2dVertex
 10
72.10137725997838
 20
-156.3965663251718
 30
0.0
  0
VERTEX
  5
385
330
383
100
AcDbEntity
  8
LIVELLO_1
 62
     7
100
AcDbVertex
100
AcDb2dVertex
 10
73.59285354166175
 20
-156.3965663251718
 30
0.0
  0
SEQEND
  5
386
330
383
100
AcDbEntity
  8
LIVELLO_1
 62
     7
  0
POLYLINE
  5
387
330
1F
100
AcDbEntity
  8
LIVELLO_1
 62
     7
100
AcDb2dPolyline
 66
     1
 10
0.0
 20
0.0
 30
0.0
  0
VERTEX
  5
388
330
387
100
AcDbEntity
  8
LIVELLO_1
 62
     7
100
AcDbVertex
100
AcDb2dVertex
 10
73.59285354166175
 20
-151.425007950421
 30
0.0
  0
VERTEX
  5
389
330
387
100
AcDbEntity
  8
LIVELLO_1
 62
     7
100
AcDbVertex
100
AcDb2dVertex
 10
73.59285354166175
 20
-149.933619361359
 30
0.0
  0
SEQEND
  5
38A
330
387
100
AcDbEntity
  8
LIVELLO_1
 62
     7
  0
POLYLINE
  5
38B
330
1F
100
AcDbEntity
  8
LIVELLO_1
 62
     7
100
AcDb2dPolyline
 66
     1
 10
0.0
 20
0.0
 30
0.0
  0
VERTEX
  5
38C
330
38B
100
AcDbEntity
  8
LIVELLO_1
 62
     7
100
AcDbVertex
100
AcDb2dVertex
 10
73.59285354166175
 20
-149.933619361359
 30
0.0
  0
VERTEX
  5
38D
330
38B
100
AcDbEntity
  8
LIVELLO_1
 62
     7
100
AcDbVertex
100
AcDb2dVertex
 10
72.10137725997838
 20
-149.933619361359
 30
0.0
  0
SEQEND
  5
38E
330
38B
100
AcDbEntity
  8
LIVELLO_1
 62
     7
  0
POLYLINE
  5
38F
330
1F
100
AcDbEntity
  8
LIVELLO_1
 62
     7
100
AcDb2dPolyline
 66
     1
 10
0.0
 20
0.0
 30
0.0
  0
VERTEX
  5
390
330
38F
100
AcDbEntity
  8
LIVELLO_1
 62
     7
100
AcDbVertex
100
AcDb2dVertex
 10
72.10137725997838
 20
-149.933619361359
 30
0.0
  0
VERTEX
  5
391
330
38F
100
AcDbEntity
  8
LIVELLO_1
 62
     7
100
AcDbVertex
100
AcDb2dVertex
 10
72.10137725997838
 20
-151.425007950421
 30
0.0
  0
SEQEND
  5
392
330
38F
100
AcDbEntity
  8
LIVELLO_1
 62
     7
  0
POLYLINE
  5
393
330
1F
100
AcDbEntity
  8
LIVELLO_1
 62
     7
100
AcDb2dPolyline
 66
     1
 10
0.0
 20
0.0
 30
0.0
  0
VERTEX
  5
394
330
393
100
AcDbEntity
  8
LIVELLO_1
 62
     7
100
AcDbVertex
100
AcDb2dVertex
 10
72.10137725997838
 20
-151.425007950421
 30
0.0
  0
VERTEX
  5
395
330
393
100
AcDbEntity
  8
LIVELLO_1
 62
     7
100
AcDbVertex
100
AcDb2dVertex
 10
73.59285354166175
 20
-151.425007950421
 30
0.0
  0
SEQEND
  5
396
330
393
100
AcDbEntity
  8
LIVELLO_1
 62
     7
  0
POLYLINE
  5
397
330
1F
100
AcDbEntity
  8
LIVELLO_1
 62
     7
100
AcDb2dPolyline
 66
     1
 10
0.0
 20
0.0
 30
0.0
  0
VERTEX
  5
398
330
397
100
AcDbEntity
  8
LIVELLO_1
 62
     7
100
AcDbVertex
100
AcDb2dVertex
 10
73.59285354166175
 20
-146.4535372682968
 30
0.0
  0
VERTEX
  5
399
330
397
100
AcDbEntity
  8
LIVELLO_1
 62
     7
100
AcDbVertex
100
AcDb2dVertex
 10
73.59285354166175
 20
-144.9620609866076
 30
0.0
  0
SEQEND
  5
39A
330
397
100
AcDbEntity
  8
LIVELLO_1
 62
     7
  0
POLYLINE
  5
39B
330
1F
100
AcDbEntity
  8
LIVELLO_1
 62
     7
100
AcDb2dPolyline
 66
     1
 10
0.0
 20
0.0
 30
0.0
  0
VERTEX
  5
39C
330
39B
100
AcDbEntity
  8
LIVELLO_1
 62
     7
100
AcDbVertex
100
AcDb2dVertex
 10
73.59285354166175
 20
-144.9620609866076
 30
0.0
  0
VERTEX
  5
39D
330
39B
100
AcDbEntity
  8
LIVELLO_1
 62
     7
100
AcDbVertex
100
AcDb2dVertex
 10
72.10137725997838
 20
-144.9620609866076
 30
0.0
  0
SEQEND
  5
39E
330
39B
100
AcDbEntity
  8
LIVELLO_1
 62
     7
  0
POLYLINE
  5
39F
330
1F
100
AcDbEntity
  8
LIVELLO_1
 62
     7
100
AcDb2dPolyline
 66
     1
 10
0.0
 20
0.0
 30
0.0
  0
VERTEX
  5
3A0
330
39F
100
AcDbEntity
  8
LIVELLO_1
 62
     7
100
AcDbVertex
100
AcDb2dVertex
 10
72.10137725997838
 20
-144.9620609866076
 30
0.0
  0
VERTEX
  5
3A1
330
39F
100
AcDbEntity
  8
LIVELLO_1
 62
     7
100
AcDbVertex
100
AcDb2dVertex
 10
72.10137725997838
 20
-146.4535372682968
 30
0.0
  0
SEQEND
  5
3A2
330
39F
100
AcDbEntity
  8
LIVELLO_1
 62
     7
  0
POLYLINE
  5
3A3
330
1F
100
AcDbEntity
  8
LIVELLO_1
 62
     7
100
AcDb2dPolyline
 66
     1
 10
0.0
 20
0.0
 30
0.0
  0
VERTEX
  5
3A4
330
3A3
100
AcDbEntity
  8
LIVELLO_1
 62
     7
100
AcDbVertex
100
AcDb2dVertex
 10
72.10137725997838
 20
-146.4535372682968
 30
0.0
  0
VERTEX
  5
3A5
330
3A3
100
AcDbEntity
  8
LIVELLO_1
 62
     7
100
AcDbVertex
100
AcDb2dVertex
 10
73.59285354166175
 20
-146.4535372682968
 30
0.0
  0
SEQEND
  5
3A6
330
3A3
100
AcDbEntity
  8
LIVELLO_1
 62
     7
  0
POLYLINE
  5
3A7
330
1F
100
AcDbEntity
  8
LIVELLO_1
 62
     7
100
AcDb2dPolyline
 66
     1
 10
0.0
 20
0.0
 30
0.0
  0
VERTEX
  5
3A8
330
3A7
100
AcDbEntity
  8
LIVELLO_1
 62
     7
100
AcDbVertex
100
AcDb2dVertex
 10
73.59285354166175
 20
-141.481978893546
 30
0.0
  0
VERTEX
  5
3A9
330
3A7
100
AcDbEntity
  8
LIVELLO_1
 62
     7
100
AcDbVertex
100
AcDb2dVertex
 10
73.59285354166175
 20
-139.9905026118562
 30
0.0
  0
SEQEND
  5
3AA
330
3A7
100
AcDbEntity
  8
LIVELLO_1
 62
     7
  0
POLYLINE
  5
3AB
330
1F
100
AcDbEntity
  8
LIVELLO_1
 62
     7
100
AcDb2dPolyline
 66
     1
 10
0.0
 20
0.0
 30
0.0
  0
VERTEX
  5
3AC
330
3AB
100
AcDbEntity
  8
LIVELLO_1
 62
     7
100
AcDbVertex
100
AcDb2dVertex
 10
73.59285354166175
 20
-139.9905026118562
 30
0.0
  0
VERTEX
  5
3AD
330
3AB
100
AcDbEntity
  8
LIVELLO_1
 62
     7
100
AcDbVertex
100
AcDb2dVertex
 10
72.10137725997838
 20
-139.9905026118562
 30
0.0
  0
SEQEND
  5
3AE
330
3AB
100
AcDbEntity
  8
LIVELLO_1
 62
     7
  0
POLYLINE
  5
3AF
330
1F
100
AcDbEntity
  8
LIVELLO_1
 62
     7
100
AcDb2dPolyline
 66
     1
 10
0.0
 20
0.0
 30
0.0
  0
VERTEX
  5
3B0
330
3AF
100
AcDbEntity
  8
LIVELLO_1
 62
     7
100
AcDbVertex
100
AcDb2dVertex
 10
72.10137725997838
 20
-139.9905026118562
 30
0.0
  0
VERTEX
  5
3B1
330
3AF
100
AcDbEntity
  8
LIVELLO_1
 62
     7
100
AcDbVertex
100
AcDb2dVertex
 10
72.10137725997838
 20
-141.481978893546
 30
0.0
  0
SEQEND
  5
3B2
330
3AF
100
AcDbEntity
  8
LIVELLO_1
 62
     7
  0
POLYLINE
  5
3B3
330
1F
100
AcDbEntity
  8
LIVELLO_1
 62
     7
100
AcDb2dPolyline
 66
     1
 10
0.0
 20
0.0
 30
0.0
  0
VERTEX
  5
3B4
330
3B3
100
AcDbEntity
  8
LIVELLO_1
 62
     7
100
AcDbVertex
100
AcDb2dVertex
 10
72.10137725997838
 20
-141.481978893546
 30
0.0
  0
VERTEX
  5
3B5
330
3B3
100
AcDbEntity
  8
LIVELLO_1
 62
     7
100
AcDbVertex
100
AcDb2dVertex
 10
73.59285354166175
 20
-141.481978893546
 30
0.0
  0
SEQEND
  5
3B6
330
3B3
100
AcDbEntity
  8
LIVELLO_1
 62
     7
  0
POLYLINE
  5
3B7
330
1F
100
AcDbEntity
  8
LIVELLO_1
 62
     7
100
AcDb2dPolyline
 66
     1
 10
0.0
 20
0.0
 30
0.0
  0
VERTEX
  5
3B8
330
3B7
100
AcDbEntity
  8
LIVELLO_1
 62
     7
100
AcDbVertex
100
AcDb2dVertex
 10
73.59285354166175
 20
-136.5104205187947
 30
0.0
  0
VERTEX
  5
3B9
330
3B7
100
AcDbEntity
  8
LIVELLO_1
 62
     7
100
AcDbVertex
100
AcDb2dVertex
 10
73.59285354166175
 20
-135.0189442371048
 30
0.0
  0
SEQEND
  5
3BA
330
3B7
100
AcDbEntity
  8
LIVELLO_1
 62
     7
  0
POLYLINE
  5
3BB
330
1F
100
AcDbEntity
  8
LIVELLO_1
 62
     7
100
AcDb2dPolyline
 66
     1
 10
0.0
 20
0.0
 30
0.0
  0
VERTEX
  5
3BC
330
3BB
100
AcDbEntity
  8
LIVELLO_1
 62
     7
100
AcDbVertex
100
AcDb2dVertex
 10
73.59285354166175
 20
-135.0189442371048
 30
0.0
  0
VERTEX
  5
3BD
330
3BB
100
AcDbEntity
  8
LIVELLO_1
 62
     7
100
AcDbVertex
100
AcDb2dVertex
 10
72.10137725997838
 20
-135.0189442371048
 30
0.0
  0
SEQEND
  5
3BE
330
3BB
100
AcDbEntity
  8
LIVELLO_1
 62
     7
  0
POLYLINE
  5
3BF
330
1F
100
AcDbEntity
  8
LIVELLO_1
 62
     7
100
AcDb2dPolyline
 66
     1
 10
0.0
 20
0.0
 30
0.0
  0
VERTEX
  5
3C0
330
3BF
100
AcDbEntity
  8
LIVELLO_1
 62
     7
100
AcDbVertex
100
AcDb2dVertex
 10
72.10137725997838
 20
-135.0189442371048
 30
0.0
  0
VERTEX
  5
3C1
330
3BF
100
AcDbEntity
  8
LIVELLO_1
 62
     7
100
AcDbVertex
100
AcDb2dVertex
 10
72.10137725997838
 20
-136.5104205187947
 30
0.0
  0
SEQEND
  5
3C2
330
3BF
100
AcDbEntity
  8
LIVELLO_1
 62
     7
  0
POLYLINE
  5
3C3
330
1F
100
AcDbEntity
  8
LIVELLO_1
 62
     7
100
AcDb2dPolyline
 66
     1
 10
0.0
 20
0.0
 30
0.0
  0
VERTEX
  5
3C4
330
3C3
100
AcDbEntity
  8
LIVELLO_1
 62
     7
100
AcDbVertex
100
AcDb2dVertex
 10
72.10137725997838
 20
-136.5104205187947
 30
0.0
  0
VERTEX
  5
3C5
330
3C3
100
AcDbEntity
  8
LIVELLO_1
 62
     7
100
AcDbVertex
100
AcDb2dVertex
 10
73.59285354166175
 20
-136.5104205187947
 30
0.0
  0
SEQEND
  5
3C6
330
3C3
100
AcDbEntity
  8
LIVELLO_1
 62
     7
  0
POLYLINE
  5
3C7
330
1F
100
AcDbEntity
  8
LIVELLO_1
 62
     7
100
AcDb2dPolyline
 66
     1
 10
0.0
 20
0.0
 30
0.0
  0
VERTEX
  5
3C8
330
3C7
100
AcDbEntity
  8
LIVELLO_1
 62
     7
100
AcDbVertex
100
AcDb2dVertex
 10
73.59285354166175
 20
-131.5388621440433
 30
0.0
  0
VERTEX
  5
3C9
330
3C7
100
AcDbEntity
  8
LIVELLO_1
 62
     7
100
AcDbVertex
100
AcDb2dVertex
 10
73.59285354166175
 20
-130.0473858623538
 30
0.0
  0
SEQEND
  5
3CA
330
3C7
100
AcDbEntity
  8
LIVELLO_1
 62
     7
  0
POLYLINE
  5
3CB
330
1F
100
AcDbEntity
  8
LIVELLO_1
 62
     7
100
AcDb2dPolyline
 66
     1
 10
0.0
 20
0.0
 30
0.0
  0
VERTEX
  5
3CC
330
3CB
100
AcDbEntity
  8
LIVELLO_1
 62
     7
100
AcDbVertex
100
AcDb2dVertex
 10
73.59285354166175
 20
-130.0473858623538
 30
0.0
  0
VERTEX
  5
3CD
330
3CB
100
AcDbEntity
  8
LIVELLO_1
 62
     7
100
AcDbVertex
100
AcDb2dVertex
 10
72.10137725997838
 20
-130.0473858623538
 30
0.0
  0
SEQEND
  5
3CE
330
3CB
100
AcDbEntity
  8
LIVELLO_1
 62
     7
  0
POLYLINE
  5
3CF
330
1F
100
AcDbEntity
  8
LIVELLO_1
 62
     7
100
AcDb2dPolyline
 66
     1
 10
0.0
 20
0.0
 30
0.0
  0
VERTEX
  5
3D0
330
3CF
100
AcDbEntity
  8
LIVELLO_1
 62
     7
100
AcDbVertex
100
AcDb2dVertex
 10
72.10137725997838
 20
-130.0473858623538
 30
0.0
  0
VERTEX
  5
3D1
330
3CF
100
AcDbEntity
  8
LIVELLO_1
 62
     7
100
AcDbVertex
100
AcDb2dVertex
 10
72.10137725997838
 20
-131.5388621440433
 30
0.0
  0
SEQEND
  5
3D2
330
3CF
100
AcDbEntity
  8
LIVELLO_1
 62
     7
  0
POLYLINE
  5
3D3
330
1F
100
AcDbEntity
  8
LIVELLO_1
 62
     7
100
AcDb2dPolyline
 66
     1
 10
0.0
 20
0.0
 30
0.0
  0
VERTEX
  5
3D4
330
3D3
100
AcDbEntity
  8
LIVELLO_1
 62
     7
100
AcDbVertex
100
AcDb2dVertex
 10
72.10137725997838
 20
-131.5388621440433
 30
0.0
  0
VERTEX
  5
3D5
330
3D3
100
AcDbEntity
  8
LIVELLO_1
 62
     7
100
AcDbVertex
100
AcDb2dVertex
 10
73.59285354166175
 20
-131.5388621440433
 30
0.0
  0
SEQEND
  5
3D6
330
3D3
100
AcDbEntity
  8
LIVELLO_1
 62
     7
  0
POLYLINE
  5
3D7
330
1F
100
AcDbEntity
  8
LIVELLO_1
 62
     7
100
AcDb2dPolyline
 66
     1
 10
0.0
 20
0.0
 30
0.0
  0
VERTEX
  5
3D8
330
3D7
100
AcDbEntity
  8
LIVELLO_1
 62
     7
100
AcDbVertex
100
AcDb2dVertex
 10
73.59285354166175
 20
-126.5673037692919
 30
0.0
  0
VERTEX
  5
3D9
330
3D7
100
AcDbEntity
  8
LIVELLO_1
 62
     7
100
AcDbVertex
100
AcDb2dVertex
 10
73.59285354166175
 20
-125.0758274876021
 30
0.0
  0
SEQEND
  5
3DA
330
3D7
100
AcDbEntity
  8
LIVELLO_1
 62
     7
  0
POLYLINE
  5
3DB
330
1F
100
AcDbEntity
  8
LIVELLO_1
 62
     7
100
AcDb2dPolyline
 66
     1
 10
0.0
 20
0.0
 30
0.0
  0
VERTEX
  5
3DC
330
3DB
100
AcDbEntity
  8
LIVELLO_1
 62
     7
100
AcDbVertex
100
AcDb2dVertex
 10
73.59285354166175
 20
-125.0758274876021
 30
0.0
  0
VERTEX
  5
3DD
330
3DB
100
AcDbEntity
  8
LIVELLO_1
 62
     7
100
AcDbVertex
100
AcDb2dVertex
 10
72.10137725997838
 20
-125.0758274876021
 30
0.0
  0
SEQEND
  5
3DE
330
3DB
100
AcDbEntity
  8
LIVELLO_1
 62
     7
  0
POLYLINE
  5
3DF
330
1F
100
AcDbEntity
  8
LIVELLO_1
 62
     7
100
AcDb2dPolyline
 66
     1
 10
0.0
 20
0.0
 30
0.0
  0
VERTEX
  5
3E0
330
3DF
100
AcDbEntity
  8
LIVELLO_1
 62
     7
100
AcDbVertex
100
AcDb2dVertex
 10
72.10137725997838
 20
-125.0758274876021
 30
0.0
  0
VERTEX
  5
3E1
330
3DF
100
AcDbEntity
  8
LIVELLO_1
 62
     7
100
AcDbVertex
100
AcDb2dVertex
 10
72.10137725997838
 20
-126.5673037692919
 30
0.0
  0
SEQEND
  5
3E2
330
3DF
100
AcDbEntity
  8
LIVELLO_1
 62
     7
  0
POLYLINE
  5
3E3
330
1F
100
AcDbEntity
  8
LIVELLO_1
 62
     7
100
AcDb2dPolyline
 66
     1
 10
0.0
 20
0.0
 30
0.0
  0
VERTEX
  5
3E4
330
3E3
100
AcDbEntity
  8
LIVELLO_1
 62
     7
100
AcDbVertex
100
AcDb2dVertex
 10
72.10137725997838
 20
-126.5673037692919
 30
0.0
  0
VERTEX
  5
3E5
330
3E3
100
AcDbEntity
  8
LIVELLO_1
 62
     7
100
AcDbVertex
100
AcDb2dVertex
 10
73.59285354166175
 20
-126.5673037692919
 30
0.0
  0
SEQEND
  5
3E6
330
3E3
100
AcDbEntity
  8
LIVELLO_1
 62
     7
  0
POLYLINE
  5
3E7
330
1F
100
AcDbEntity
  8
LIVELLO_1
 62
     7
100
AcDb2dPolyline
 66
     1
 10
0.0
 20
0.0
 30
0.0
  0
VERTEX
  5
3E8
330
3E7
100
AcDbEntity
  8
LIVELLO_1
 62
     7
100
AcDbVertex
100
AcDb2dVertex
 10
75.33285074188187
 20
-184.3615712215635
 30
0.0
  0
VERTEX
  5
3E9
330
3E7
100
AcDbEntity
  8
LIVELLO_1
 62
     7
100
AcDbVertex
100
AcDb2dVertex
 10
75.33285074188187
 20
-121.9686144649618
 30
0.0
  0
SEQEND
  5
3EA
330
3E7
100
AcDbEntity
  8
LIVELLO_1
 62
     7
  0
POLYLINE
  5
3EB
330
1F
100
AcDbEntity
  8
LIVELLO_1
 62
     7
100
AcDb2dPolyline
 66
     1
 10
0.0
 20
0.0
 30
0.0
  0
VERTEX
  5
3EC
330
3EB
100
AcDbEntity
  8
LIVELLO_1
 62
     7
100
AcDbVertex
100
AcDb2dVertex
 10
72.72276724892393
 20
-121.9686144649618
 30
0.0
  0
VERTEX
  5
3ED
330
3EB
100
AcDbEntity
  8
LIVELLO_1
 62
     7
100
AcDbVertex
100
AcDb2dVertex
 10
75.33285074188187
 20
-121.9686144649618
 30
0.0
  0
SEQEND
  5
3EE
330
3EB
100
AcDbEntity
  8
LIVELLO_1
 62
     7
  0
POLYLINE
  5
3EF
330
1F
100
AcDbEntity
  8
LIVELLO_1
 62
     7
100
AcDb2dPolyline
 66
     1
 10
0.0
 20
0.0
 30
0.0
  0
VERTEX
  5
3F0
330
3EF
100
AcDbEntity
  8
LIVELLO_1
 62
     7
100
AcDbVertex
100
AcDb2dVertex
 10
72.47424633039938
 20
-122.4657439946474
 30
0.0
  0
VERTEX
  5
3F1
330
3EF
100
AcDbEntity
  8
LIVELLO_1
 62
     7
100
AcDbVertex
100
AcDb2dVertex
 10
72.47424633039938
 20
-121.7200058538028
 30
0.0
  0
SEQEND
  5
3F2
330
3EF
100
AcDbEntity
  8
LIVELLO_1
 62
     7
  0
POLYLINE
  5
3F3
330
1F
100
AcDbEntity
  8
LIVELLO_1
 62
     7
100
AcDb2dPolyline
 66
     1
 10
0.0
 20
0.0
 30
0.0
  0
VERTEX
  5
3F4
330
3F3
100
AcDbEntity
  8
LIVELLO_1
 62
     7
100
AcDbVertex
100
AcDb2dVertex
 10
72.47424633039938
 20
-121.7200058538028
 30
0.0
  0
VERTEX
  5
3F5
330
3F3
100
AcDbEntity
  8
LIVELLO_1
 62
     7
100
AcDbVertex
100
AcDb2dVertex
 10
72.72276724892393
 20
-121.9686144649618
 30
0.0
  0
SEQEND
  5
3F6
330
3F3
100
AcDbEntity
  8
LIVELLO_1
 62
     7
  0
POLYLINE
  5
3F7
330
1F
100
AcDbEntity
  8
LIVELLO_1
 62
     7
100
AcDb2dPolyline
 66
     1
 10
0.0
 20
0.0
 30
0.0
  0
VERTEX
  5
3F8
330
3F7
100
AcDbEntity
  8
LIVELLO_1
 62
     7
100
AcDbVertex
100
AcDb2dVertex
 10
72.72276724892393
 20
-121.9686144649618
 30
0.0
  0
VERTEX
  5
3F9
330
3F7
100
AcDbEntity
  8
LIVELLO_1
 62
     7
100
AcDbVertex
100
AcDb2dVertex
 10
72.72276724892393
 20
-122.7143526058061
 30
0.0
  0
SEQEND
  5
3FA
330
3F7
100
AcDbEntity
  8
LIVELLO_1
 62
     7
  0
POLYLINE
  5
3FB
330
1F
100
AcDbEntity
  8
LIVELLO_1
 62
     7
100
AcDb2dPolyline
 66
     1
 10
0.0
 20
0.0
 30
0.0
  0
VERTEX
  5
3FC
330
3FB
100
AcDbEntity
  8
LIVELLO_1
 62
     7
100
AcDbVertex
100
AcDb2dVertex
 10
72.72276724892393
 20
-122.7143526058061
 30
0.0
  0
VERTEX
  5
3FD
330
3FB
100
AcDbEntity
  8
LIVELLO_1
 62
     7
100
AcDbVertex
100
AcDb2dVertex
 10
72.47424633039938
 20
-122.4657439946474
 30
0.0
  0
SEQEND
  5
3FE
330
3FB
100
AcDbEntity
  8
LIVELLO_1
 62
     7
  0
POLYLINE
  5
3FF
330
1F
100
AcDbEntity
  8
LIVELLO_1
 62
     7
100
AcDb2dPolyline
 66
     1
 10
0.0
 20
0.0
 30
0.0
  0
VERTEX
  5
400
330
3FF
100
AcDbEntity
  8
LIVELLO_1
 62
     7
100
AcDbVertex
100
AcDb2dVertex
 10
71.72850818955128
 20
-184.3615712215635
 30
0.0
  0
VERTEX
  5
401
330
3FF
100
AcDbEntity
  8
LIVELLO_1
 62
     7
100
AcDbVertex
100
AcDb2dVertex
 10
69.98842329670339
 20
-184.3615712215635
 30
0.0
  0
SEQEND
  5
402
330
3FF
100
AcDbEntity
  8
LIVELLO_1
 62
     7
  0
POLYLINE
  5
403
330
1F
100
AcDbEntity
  8
LIVELLO_1
 62
     7
100
AcDb2dPolyline
 66
     1
 10
0.0
 20
0.0
 30
0.0
  0
VERTEX
  5
404
330
403
100
AcDbEntity
  8
LIVELLO_1
 62
     7
100
AcDbVertex
100
AcDb2dVertex
 10
69.98842329670339
 20
-184.3615712215635
 30
0.0
  0
VERTEX
  5
405
330
403
100
AcDbEntity
  8
LIVELLO_1
 62
     7
100
AcDbVertex
100
AcDb2dVertex
 10
69.98842329670339
 20
-185.480178432838
 30
0.0
  0
SEQEND
  5
406
330
403
100
AcDbEntity
  8
LIVELLO_1
 62
     7
  0
POLYLINE
  5
407
330
1F
100
AcDbEntity
  8
LIVELLO_1
 62
     7
100
AcDb2dPolyline
 66
     1
 10
0.0
 20
0.0
 30
0.0
  0
VERTEX
  5
408
330
407
100
AcDbEntity
  8
LIVELLO_1
 62
     7
100
AcDbVertex
100
AcDb2dVertex
 10
69.98842329670339
 20
-185.480178432838
 30
0.0
  0
VERTEX
  5
409
330
407
100
AcDbEntity
  8
LIVELLO_1
 62
     7
100
AcDbVertex
100
AcDb2dVertex
 10
76.57571841241294
 20
-185.480178432838
 30
0.0
  0
SEQEND
  5
40A
330
407
100
AcDbEntity
  8
LIVELLO_1
 62
     7
  0
POLYLINE
  5
40B
330
1F
100
AcDbEntity
  8
LIVELLO_1
 62
     7
100
AcDb2dPolyline
 66
     1
 10
0.0
 20
0.0
 30
0.0
  0
VERTEX
  5
40C
330
40B
100
AcDbEntity
  8
LIVELLO_1
 62
     7
100
AcDbVertex
100
AcDb2dVertex
 10
69.98842329670339
 20
-120.8500072536959
 30
0.0
  0
VERTEX
  5
40D
330
40B
100
AcDbEntity
  8
LIVELLO_1
 62
     7
100
AcDbVertex
100
AcDb2dVertex
 10
69.98842329670339
 20
-121.9686144649618
 30
0.0
  0
SEQEND
  5
40E
330
40B
100
AcDbEntity
  8
LIVELLO_1
 62
     7
  0
POLYLINE
  5
40F
330
1F
100
AcDbEntity
  8
LIVELLO_1
 62
     7
100
AcDb2dPolyline
 66
     1
 10
0.0
 20
0.0
 30
0.0
  0
VERTEX
  5
410
330
40F
100
AcDbEntity
  8
LIVELLO_1
 62
     7
100
AcDbVertex
100
AcDb2dVertex
 10
71.72850818955128
 20
-121.9686144649618
 30
0.0
  0
VERTEX
  5
411
330
40F
100
AcDbEntity
  8
LIVELLO_1
 62
     7
100
AcDbVertex
100
AcDb2dVertex
 10
71.72850818955128
 20
-122.4657439946474
 30
0.0
  0
SEQEND
  5
412
330
40F
100
AcDbEntity
  8
LIVELLO_1
 62
     7
  0
POLYLINE
  5
413
330
1F
100
AcDbEntity
  8
LIVELLO_1
 62
     7
100
AcDb2dPolyline
 66
     1
 10
0.0
 20
0.0
 30
0.0
  0
VERTEX
  5
414
330
413
100
AcDbEntity
  8
LIVELLO_1
 62
     7
100
AcDbVertex
100
AcDb2dVertex
 10
71.72850818955128
 20
-122.4657439946474
 30
0.0
  0
VERTEX
  5
415
330
413
100
AcDbEntity
  8
LIVELLO_1
 62
     7
100
AcDbVertex
100
AcDb2dVertex
 10
72.47424633039938
 20
-122.4657439946474
 30
0.0
  0
SEQEND
  5
416
330
413
100
AcDbEntity
  8
LIVELLO_1
 62
     7
  0
POLYLINE
  5
417
330
1F
100
AcDbEntity
  8
LIVELLO_1
 62
     7
100
AcDb2dPolyline
 66
     1
 10
0.0
 20
0.0
 30
0.0
  0
VERTEX
  5
418
330
417
100
AcDbEntity
  8
LIVELLO_1
 62
     7
100
AcDbVertex
100
AcDb2dVertex
 10
72.47424633039938
 20
-121.7200058538028
 30
0.0
  0
VERTEX
  5
419
330
417
100
AcDbEntity
  8
LIVELLO_1
 62
     7
100
AcDbVertex
100
AcDb2dVertex
 10
75.58145935303419
 20
-121.7200058538028
 30
0.0
  0
SEQEND
  5
41A
330
417
100
AcDbEntity
  8
LIVELLO_1
 62
     7
  0
POLYLINE
  5
41B
330
1F
100
AcDbEntity
  8
LIVELLO_1
 62
     7
100
AcDb2dPolyline
 66
     1
 10
0.0
 20
0.0
 30
0.0
  0
VERTEX
  5
41C
330
41B
100
AcDbEntity
  8
LIVELLO_1
 62
     7
100
AcDbVertex
100
AcDb2dVertex
 10
75.58145935303419
 20
-121.7200058538028
 30
0.0
  0
VERTEX
  5
41D
330
41B
100
AcDbEntity
  8
LIVELLO_1
 62
     7
100
AcDbVertex
100
AcDb2dVertex
 10
75.58145935303419
 20
-184.610179832728
 30
0.0
  0
SEQEND
  5
41E
330
41B
100
AcDbEntity
  8
LIVELLO_1
 62
     7
  0
POLYLINE
  5
41F
330
1F
100
AcDbEntity
  8
LIVELLO_1
 62
     7
100
AcDb2dPolyline
 66
     1
 10
0.0
 20
0.0
 30
0.0
  0
VERTEX
  5
420
330
41F
100
AcDbEntity
  8
LIVELLO_1
 62
     7
100
AcDbVertex
100
AcDb2dVertex
 10
75.58145935303419
 20
-184.610179832728
 30
0.0
  0
VERTEX
  5
421
330
41F
100
AcDbEntity
  8
LIVELLO_1
 62
     7
100
AcDbVertex
100
AcDb2dVertex
 10
72.47424633039938
 20
-184.610179832728
 30
0.0
  0
SEQEND
  5
422
330
41F
100
AcDbEntity
  8
LIVELLO_1
 62
     7
  0
POLYLINE
  5
423
330
1F
100
AcDbEntity
  8
LIVELLO_1
 62
     7
100
AcDb2dPolyline
 66
     1
 10
0.0
 20
0.0
 30
0.0
  0
VERTEX
  5
424
330
423
100
AcDbEntity
  8
LIVELLO_1
 62
     7
100
AcDbVertex
100
AcDb2dVertex
 10
72.47424633039938
 20
-184.610179832728
 30
0.0
  0
VERTEX
  5
425
330
423
100
AcDbEntity
  8
LIVELLO_1
 62
     7
100
AcDbVertex
100
AcDb2dVertex
 10
72.47424633039938
 20
-183.8644416918802
 30
0.0
  0
SEQEND
  5
426
330
423
100
AcDbEntity
  8
LIVELLO_1
 62
     7
  0
POLYLINE
  5
427
330
1F
100
AcDbEntity
  8
LIVELLO_1
 62
     7
100
AcDb2dPolyline
 66
     1
 10
0.0
 20
0.0
 30
0.0
  0
VERTEX
  5
428
330
427
100
AcDbEntity
  8
LIVELLO_1
 62
     7
100
AcDbVertex
100
AcDb2dVertex
 10
72.47424633039938
 20
-183.8644416918802
 30
0.0
  0
VERTEX
  5
429
330
427
100
AcDbEntity
  8
LIVELLO_1
 62
     7
100
AcDbVertex
100
AcDb2dVertex
 10
71.72850818955128
 20
-183.8644416918802
 30
0.0
  0
SEQEND
  5
42A
330
427
100
AcDbEntity
  8
LIVELLO_1
 62
     7
  0
POLYLINE
  5
42B
330
1F
100
AcDbEntity
  8
LIVELLO_1
 62
     7
100
AcDb2dPolyline
 66
     1
 10
0.0
 20
0.0
 30
0.0
  0
VERTEX
  5
42C
330
42B
100
AcDbEntity
  8
LIVELLO_1
 62
     7
100
AcDbVertex
100
AcDb2dVertex
 10
71.72850818955128
 20
-183.8644416918802
 30
0.0
  0
VERTEX
  5
42D
330
42B
100
AcDbEntity
  8
LIVELLO_1
 62
     7
100
AcDbVertex
100
AcDb2dVertex
 10
71.72850818955128
 20
-184.3615712215635
 30
0.0
  0
SEQEND
  5
42E
330
42B
100
AcDbEntity
  8
LIVELLO_1
 62
     7
  0
POLYLINE
  5
42F
330
1F
100
AcDbEntity
  8
LIVELLO_1
 62
     7
100
AcDb2dPolyline
 66
     1
 10
0.0
 20
0.0
 30
0.0
  0
VERTEX
  5
430
330
42F
100
AcDbEntity
  8
LIVELLO_1
 62
     7
100
AcDbVertex
100
AcDb2dVertex
 10
68.99416423733106
 20
-184.3615712215635
 30
0.0
  0
VERTEX
  5
431
330
42F
100
AcDbEntity
  8
LIVELLO_1
 62
     7
100
AcDbVertex
100
AcDb2dVertex
 10
67.502687955648
 20
-184.3615712215635
 30
0.0
  0
SEQEND
  5
432
330
42F
100
AcDbEntity
  8
LIVELLO_1
 62
     7
  0
POLYLINE
  5
433
330
1F
100
AcDbEntity
  8
LIVELLO_1
 62
     7
100
AcDb2dPolyline
 66
     1
 10
0.0
 20
0.0
 30
0.0
  0
VERTEX
  5
434
330
433
100
AcDbEntity
  8
LIVELLO_1
 62
     7
100
AcDbVertex
100
AcDb2dVertex
 10
68.24842609648937
 20
-121.9686144649618
 30
0.0
  0
VERTEX
  5
435
330
433
100
AcDbEntity
  8
LIVELLO_1
 62
     7
100
AcDbVertex
100
AcDb2dVertex
 10
68.24842609648937
 20
-184.3615712215635
 30
0.0
  0
SEQEND
  5
436
330
433
100
AcDbEntity
  8
LIVELLO_1
 62
     7
  0
POLYLINE
  5
437
330
1F
100
AcDbEntity
  8
LIVELLO_1
 62
     7
100
AcDb2dPolyline
 66
     1
 10
0.0
 20
0.0
 30
0.0
  0
VERTEX
  5
438
330
437
100
AcDbEntity
  8
LIVELLO_1
 62
     7
100
AcDbVertex
100
AcDb2dVertex
 10
71.10703050797186
 20
-125.5729570172886
 30
0.0
  0
VERTEX
  5
439
330
437
100
AcDbEntity
  8
LIVELLO_1
 62
     7
100
AcDbVertex
100
AcDb2dVertex
 10
71.47989957839287
 20
-125.2000879468644
 30
0.0
  0
SEQEND
  5
43A
330
437
100
AcDbEntity
  8
LIVELLO_1
 62
     7
  0
POLYLINE
  5
43B
330
1F
100
AcDbEntity
  8
LIVELLO_1
 62
     7
100
AcDb2dPolyline
 66
     1
 10
0.0
 20
0.0
 30
0.0
  0
VERTEX
  5
43C
330
43B
100
AcDbEntity
  8
LIVELLO_1
 62
     7
100
AcDbVertex
100
AcDb2dVertex
 10
71.47989957839287
 20
-181.13009773966
 30
0.0
  0
VERTEX
  5
43D
330
43B
100
AcDbEntity
  8
LIVELLO_1
 62
     7
100
AcDbVertex
100
AcDb2dVertex
 10
71.10703050797186
 20
-180.757228669239
 30
0.0
  0
SEQEND
  5
43E
330
43B
100
AcDbEntity
  8
LIVELLO_1
 62
     7
  0
POLYLINE
  5
43F
330
1F
100
AcDbEntity
  8
LIVELLO_1
 62
     7
100
AcDb2dPolyline
 66
     1
 10
0.0
 20
0.0
 30
0.0
  0
VERTEX
  5
440
330
43F
100
AcDbEntity
  8
LIVELLO_1
 62
     7
100
AcDbVertex
100
AcDb2dVertex
 10
71.47989957839287
 20
-184.3615712215635
 30
0.0
  0
VERTEX
  5
441
330
43F
100
AcDbEntity
  8
LIVELLO_1
 62
     7
100
AcDbVertex
100
AcDb2dVertex
 10
71.47989957839287
 20
-183.6158330807214
 30
0.0
  0
SEQEND
  5
442
330
43F
100
AcDbEntity
  8
LIVELLO_1
 62
     7
  0
POLYLINE
  5
443
330
1F
100
AcDbEntity
  8
LIVELLO_1
 62
     7
100
AcDb2dPolyline
 66
     1
 10
0.0
 20
0.0
 30
0.0
  0
VERTEX
  5
444
330
443
100
AcDbEntity
  8
LIVELLO_1
 62
     7
100
AcDbVertex
100
AcDb2dVertex
 10
71.47989957839287
 20
-183.6158330807214
 30
0.0
  0
VERTEX
  5
445
330
443
100
AcDbEntity
  8
LIVELLO_1
 62
     7
100
AcDbVertex
100
AcDb2dVertex
 10
72.72276724892393
 20
-183.6158330807214
 30
0.0
  0
SEQEND
  5
446
330
443
100
AcDbEntity
  8
LIVELLO_1
 62
     7
  0
POLYLINE
  5
447
330
1F
100
AcDbEntity
  8
LIVELLO_1
 62
     7
100
AcDb2dPolyline
 66
     1
 10
0.0
 20
0.0
 30
0.0
  0
VERTEX
  5
448
330
447
100
AcDbEntity
  8
LIVELLO_1
 62
     7
100
AcDbVertex
100
AcDb2dVertex
 10
72.72276724892393
 20
-183.6158330807214
 30
0.0
  0
VERTEX
  5
449
330
447
100
AcDbEntity
  8
LIVELLO_1
 62
     7
100
AcDbVertex
100
AcDb2dVertex
 10
72.72276724892393
 20
-184.3615712215635
 30
0.0
  0
SEQEND
  5
44A
330
447
100
AcDbEntity
  8
LIVELLO_1
 62
     7
  0
POLYLINE
  5
44B
330
1F
100
AcDbEntity
  8
LIVELLO_1
 62
     7
100
AcDb2dPolyline
 66
     1
 10
0.0
 20
0.0
 30
0.0
  0
VERTEX
  5
44C
330
44B
100
AcDbEntity
  8
LIVELLO_1
 62
     7
100
AcDbVertex
100
AcDb2dVertex
 10
75.33285074188187
 20
-184.3615712215635
 30
0.0
  0
VERTEX
  5
44D
330
44B
100
AcDbEntity
  8
LIVELLO_1
 62
     7
100
AcDbVertex
100
AcDb2dVertex
 10
72.72276724892393
 20
-184.3615712215635
 30
0.0
  0
SEQEND
  5
44E
330
44B
100
AcDbEntity
  8
LIVELLO_1
 62
     7
  0
POLYLINE
  5
44F
330
1F
100
AcDbEntity
  8
LIVELLO_1
 62
     7
100
AcDb2dPolyline
 66
     1
 10
0.0
 20
0.0
 30
0.0
  0
VERTEX
  5
450
330
44F
100
AcDbEntity
  8
LIVELLO_1
 62
     7
100
AcDbVertex
100
AcDb2dVertex
 10
75.58145935303419
 20
-184.610179832728
 30
0.0
  0
VERTEX
  5
451
330
44F
100
AcDbEntity
  8
LIVELLO_1
 62
     7
100
AcDbVertex
100
AcDb2dVertex
 10
75.33285074188187
 20
-184.3615712215635
 30
0.0
  0
SEQEND
  5
452
330
44F
100
AcDbEntity
  8
LIVELLO_1
 62
     7
  0
POLYLINE
  5
453
330
1F
100
AcDbEntity
  8
LIVELLO_1
 62
     7
100
AcDb2dPolyline
 66
     1
 10
0.0
 20
0.0
 30
0.0
  0
VERTEX
  5
454
330
453
100
AcDbEntity
  8
LIVELLO_1
 62
     7
100
AcDbVertex
100
AcDb2dVertex
 10
72.72276724892393
 20
-184.3615712215635
 30
0.0
  0
VERTEX
  5
455
330
453
100
AcDbEntity
  8
LIVELLO_1
 62
     7
100
AcDbVertex
100
AcDb2dVertex
 10
72.47424633039938
 20
-184.610179832728
 30
0.0
  0
SEQEND
  5
456
330
453
100
AcDbEntity
  8
LIVELLO_1
 62
     7
  0
POLYLINE
  5
457
330
1F
100
AcDbEntity
  8
LIVELLO_1
 62
     7
100
AcDb2dPolyline
 66
     1
 10
0.0
 20
0.0
 30
0.0
  0
VERTEX
  5
458
330
457
100
AcDbEntity
  8
LIVELLO_1
 62
     7
100
AcDbVertex
100
AcDb2dVertex
 10
72.72276724892393
 20
-183.6158330807214
 30
0.0
  0
VERTEX
  5
459
330
457
100
AcDbEntity
  8
LIVELLO_1
 62
     7
100
AcDbVertex
100
AcDb2dVertex
 10
72.47424633039938
 20
-183.8644416918802
 30
0.0
  0
SEQEND
  5
45A
330
457
100
AcDbEntity
  8
LIVELLO_1
 62
     7
  0
POLYLINE
  5
45B
330
1F
100
AcDbEntity
  8
LIVELLO_1
 62
     7
100
AcDb2dPolyline
 66
     1
 10
0.0
 20
0.0
 30
0.0
  0
VERTEX
  5
45C
330
45B
100
AcDbEntity
  8
LIVELLO_1
 62
     7
100
AcDbVertex
100
AcDb2dVertex
 10
71.47989957839287
 20
-183.6158330807214
 30
0.0
  0
VERTEX
  5
45D
330
45B
100
AcDbEntity
  8
LIVELLO_1
 62
     7
100
AcDbVertex
100
AcDb2dVertex
 10
71.72850818955128
 20
-183.8644416918802
 30
0.0
  0
SEQEND
  5
45E
330
45B
100
AcDbEntity
  8
LIVELLO_1
 62
     7
  0
POLYLINE
  5
45F
330
1F
100
AcDbEntity
  8
LIVELLO_1
 62
     7
100
AcDb2dPolyline
 66
     1
 10
0.0
 20
0.0
 30
0.0
  0
VERTEX
  5
460
330
45F
100
AcDbEntity
  8
LIVELLO_1
 62
     7
100
AcDbVertex
100
AcDb2dVertex
 10
75.33285074188187
 20
-121.9686144649618
 30
0.0
  0
VERTEX
  5
461
330
45F
100
AcDbEntity
  8
LIVELLO_1
 62
     7
100
AcDbVertex
100
AcDb2dVertex
 10
75.58145935303419
 20
-121.7200058538028
 30
0.0
  0
SEQEND
  5
462
330
45F
100
AcDbEntity
  8
LIVELLO_1
 62
     7
  0
POLYLINE
  5
463
330
1F
100
AcDbEntity
  8
LIVELLO_1
 62
     7
100
AcDb2dPolyline
 66
     1
 10
0.0
 20
0.0
 30
0.0
  0
VERTEX
  5
464
330
463
100
AcDbEntity
  8
LIVELLO_1
 62
     7
100
AcDbVertex
100
AcDb2dVertex
 10
69.98842329670339
 20
-185.480178432838
 30
0.0
  0
VERTEX
  5
465
330
463
100
AcDbEntity
  8
LIVELLO_1
 62
     7
100
AcDbVertex
100
AcDb2dVertex
 10
68.99416423733106
 20
-185.480178432838
 30
0.0
  0
SEQEND
  5
466
330
463
100
AcDbEntity
  8
LIVELLO_1
 62
     7
  0
POLYLINE
  5
467
330
1F
100
AcDbEntity
  8
LIVELLO_1
 62
     7
100
AcDb2dPolyline
 66
     1
 10
0.0
 20
0.0
 30
0.0
  0
VERTEX
  5
468
330
467
100
AcDbEntity
  8
LIVELLO_1
 62
     7
100
AcDbVertex
100
AcDb2dVertex
 10
68.99416423733106
 20
-185.480178432838
 30
0.0
  0
VERTEX
  5
469
330
467
100
AcDbEntity
  8
LIVELLO_1
 62
     7
100
AcDbVertex
100
AcDb2dVertex
 10
68.99416423733106
 20
-184.3615712215635
 30
0.0
  0
SEQEND
  5
46A
330
467
100
AcDbEntity
  8
LIVELLO_1
 62
     7
  0
POLYLINE
  5
46B
330
1F
100
AcDbEntity
  8
LIVELLO_1
 62
     7
100
AcDb2dPolyline
 66
     1
 10
0.0
 20
0.0
 30
0.0
  0
VERTEX
  5
46C
330
46B
100
AcDbEntity
  8
LIVELLO_1
 62
     7
100
AcDbVertex
100
AcDb2dVertex
 10
69.98842329670339
 20
-184.3615712215635
 30
0.0
  0
VERTEX
  5
46D
330
46B
100
AcDbEntity
  8
LIVELLO_1
 62
     7
100
AcDbVertex
100
AcDb2dVertex
 10
68.99416423733106
 20
-184.3615712215635
 30
0.0
  0
SEQEND
  5
46E
330
46B
100
AcDbEntity
  8
LIVELLO_1
 62
     7
  0
POLYLINE
  5
46F
330
1F
100
AcDbEntity
  8
LIVELLO_1
 62
     7
100
AcDb2dPolyline
 66
     1
 10
0.0
 20
0.0
 30
0.0
  0
VERTEX
  5
470
330
46F
100
AcDbEntity
  8
LIVELLO_1
 62
     7
100
AcDbVertex
100
AcDb2dVertex
 10
68.99416423733106
 20
-185.480178432838
 30
0.0
  0
VERTEX
  5
471
330
46F
100
AcDbEntity
  8
LIVELLO_1
 62
     7
100
AcDbVertex
100
AcDb2dVertex
 10
67.502687955648
 20
-185.480178432838
 30
0.0
  0
SEQEND
  5
472
330
46F
100
AcDbEntity
  8
LIVELLO_1
 62
     7
  0
POLYLINE
  5
473
330
1F
100
AcDbEntity
  8
LIVELLO_1
 62
     7
100
AcDb2dPolyline
 66
     1
 10
0.0
 20
0.0
 30
0.0
  0
VERTEX
  5
474
330
473
100
AcDbEntity
  8
LIVELLO_1
 62
     7
100
AcDbVertex
100
AcDb2dVertex
 10
71.47989957839287
 20
-122.7143526058061
 30
0.0
  0
VERTEX
  5
475
330
473
100
AcDbEntity
  8
LIVELLO_1
 62
     7
100
AcDbVertex
100
AcDb2dVertex
 10
71.72850818955128
 20
-122.4657439946474
 30
0.0
  0
SEQEND
  5
476
330
473
100
AcDbEntity
  8
LIVELLO_1
 62
     7
  0
POLYLINE
  5
477
330
1F
100
AcDbEntity
  8
LIVELLO_1
 62
     7
100
AcDb2dPolyline
 66
     1
 10
0.0
 20
0.0
 30
0.0
  0
VERTEX
  5
478
330
477
100
AcDbEntity
  8
LIVELLO_1
 62
     7
100
AcDbVertex
100
AcDb2dVertex
 10
68.99416423733106
 20
-120.8500072536959
 30
0.0
  0
VERTEX
  5
479
330
477
100
AcDbEntity
  8
LIVELLO_1
 62
     7
100
AcDbVertex
100
AcDb2dVertex
 10
69.98842329670339
 20
-120.8500072536959
 30
0.0
  0
SEQEND
  5
47A
330
477
100
AcDbEntity
  8
LIVELLO_1
 62
     7
  0
POLYLINE
  5
47B
330
1F
100
AcDbEntity
  8
LIVELLO_1
 62
     7
100
AcDb2dPolyline
 66
     1
 10
0.0
 20
0.0
 30
0.0
  0
VERTEX
  5
47C
330
47B
100
AcDbEntity
  8
LIVELLO_1
 62
     7
100
AcDbVertex
100
AcDb2dVertex
 10
68.99416423733106
 20
-121.9686144649618
 30
0.0
  0
VERTEX
  5
47D
330
47B
100
AcDbEntity
  8
LIVELLO_1
 62
     7
100
AcDbVertex
100
AcDb2dVertex
 10
69.98842329670339
 20
-121.9686144649618
 30
0.0
  0
SEQEND
  5
47E
330
47B
100
AcDbEntity
  8
LIVELLO_1
 62
     7
  0
POLYLINE
  5
47F
330
1F
100
AcDbEntity
  8
LIVELLO_1
 62
     7
100
AcDb2dPolyline
 66
     1
 10
0.0
 20
0.0
 30
0.0
  0
VERTEX
  5
480
330
47F
100
AcDbEntity
  8
LIVELLO_1
 62
     7
100
AcDbVertex
100
AcDb2dVertex
 10
72.22563771923424
 20
-179.8871423765011
 30
0.0
  0
VERTEX
  5
481
330
47F
100
AcDbEntity
  8
LIVELLO_1
 62
     7
100
AcDbVertex
100
AcDb2dVertex
 10
72.10137725997838
 20
-179.7628819172389
 30
0.0
  0
SEQEND
  5
482
330
47F
100
AcDbEntity
  8
LIVELLO_1
 62
     7
  0
POLYLINE
  5
483
330
1F
100
AcDbEntity
  8
LIVELLO_1
 62
     7
100
AcDb2dPolyline
 66
     1
 10
0.0
 20
0.0
 30
0.0
  0
VERTEX
  5
484
330
483
100
AcDbEntity
  8
LIVELLO_1
 62
     7
100
AcDbVertex
100
AcDb2dVertex
 10
73.59285354166175
 20
-179.7628819172389
 30
0.0
  0
VERTEX
  5
485
330
483
100
AcDbEntity
  8
LIVELLO_1
 62
     7
100
AcDbVertex
100
AcDb2dVertex
 10
73.4685053897653
 20
-179.8871423765011
 30
0.0
  0
SEQEND
  5
486
330
483
100
AcDbEntity
  8
LIVELLO_1
 62
     7
  0
POLYLINE
  5
487
330
1F
100
AcDbEntity
  8
LIVELLO_1
 62
     7
100
AcDb2dPolyline
 66
     1
 10
0.0
 20
0.0
 30
0.0
  0
VERTEX
  5
488
330
487
100
AcDbEntity
  8
LIVELLO_1
 62
     7
100
AcDbVertex
100
AcDb2dVertex
 10
72.22563771923424
 20
-179.8871423765011
 30
0.0
  0
VERTEX
  5
489
330
487
100
AcDbEntity
  8
LIVELLO_1
 62
     7
100
AcDbVertex
100
AcDb2dVertex
 10
73.4685053897653
 20
-179.8871423765011
 30
0.0
  0
SEQEND
  5
48A
330
487
100
AcDbEntity
  8
LIVELLO_1
 62
     7
  0
POLYLINE
  5
48B
330
1F
100
AcDbEntity
  8
LIVELLO_1
 62
     7
100
AcDb2dPolyline
 66
     1
 10
0.0
 20
0.0
 30
0.0
  0
VERTEX
  5
48C
330
48B
100
AcDbEntity
  8
LIVELLO_1
 62
     7
100
AcDbVertex
100
AcDb2dVertex
 10
73.4685053897653
 20
-179.8871423765011
 30
0.0
  0
VERTEX
  5
48D
330
48B
100
AcDbEntity
  8
LIVELLO_1
 62
     7
100
AcDbVertex
100
AcDb2dVertex
 10
73.4685053897653
 20
-181.13009773966
 30
0.0
  0
SEQEND
  5
48E
330
48B
100
AcDbEntity
  8
LIVELLO_1
 62
     7
  0
POLYLINE
  5
48F
330
1F
100
AcDbEntity
  8
LIVELLO_1
 62
     7
100
AcDb2dPolyline
 66
     1
 10
0.0
 20
0.0
 30
0.0
  0
VERTEX
  5
490
330
48F
100
AcDbEntity
  8
LIVELLO_1
 62
     7
100
AcDbVertex
100
AcDb2dVertex
 10
73.4685053897653
 20
-181.13009773966
 30
0.0
  0
VERTEX
  5
491
330
48F
100
AcDbEntity
  8
LIVELLO_1
 62
     7
100
AcDbVertex
100
AcDb2dVertex
 10
73.59285354166175
 20
-181.2543581989287
 30
0.0
  0
SEQEND
  5
492
330
48F
100
AcDbEntity
  8
LIVELLO_1
 62
     7
  0
POLYLINE
  5
493
330
1F
100
AcDbEntity
  8
LIVELLO_1
 62
     7
100
AcDb2dPolyline
 66
     1
 10
0.0
 20
0.0
 30
0.0
  0
VERTEX
  5
494
330
493
100
AcDbEntity
  8
LIVELLO_1
 62
     7
100
AcDbVertex
100
AcDb2dVertex
 10
72.10137725997838
 20
-181.2543581989287
 30
0.0
  0
VERTEX
  5
495
330
493
100
AcDbEntity
  8
LIVELLO_1
 62
     7
100
AcDbVertex
100
AcDb2dVertex
 10
72.22563771923424
 20
-181.13009773966
 30
0.0
  0
SEQEND
  5
496
330
493
100
AcDbEntity
  8
LIVELLO_1
 62
     7
  0
POLYLINE
  5
497
330
1F
100
AcDbEntity
  8
LIVELLO_1
 62
     7
100
AcDb2dPolyline
 66
     1
 10
0.0
 20
0.0
 30
0.0
  0
VERTEX
  5
498
330
497
100
AcDbEntity
  8
LIVELLO_1
 62
     7
100
AcDbVertex
100
AcDb2dVertex
 10
73.4685053897653
 20
-181.13009773966
 30
0.0
  0
VERTEX
  5
499
330
497
100
AcDbEntity
  8
LIVELLO_1
 62
     7
100
AcDbVertex
100
AcDb2dVertex
 10
72.22563771923424
 20
-181.13009773966
 30
0.0
  0
SEQEND
  5
49A
330
497
100
AcDbEntity
  8
LIVELLO_1
 62
     7
  0
POLYLINE
  5
49B
330
1F
100
AcDbEntity
  8
LIVELLO_1
 62
     7
100
AcDb2dPolyline
 66
     1
 10
0.0
 20
0.0
 30
0.0
  0
VERTEX
  5
49C
330
49B
100
AcDbEntity
  8
LIVELLO_1
 62
     7
100
AcDbVertex
100
AcDb2dVertex
 10
72.22563771923424
 20
-181.13009773966
 30
0.0
  0
VERTEX
  5
49D
330
49B
100
AcDbEntity
  8
LIVELLO_1
 62
     7
100
AcDbVertex
100
AcDb2dVertex
 10
72.22563771923424
 20
-179.8871423765011
 30
0.0
  0
SEQEND
  5
49E
330
49B
100
AcDbEntity
  8
LIVELLO_1
 62
     7
  0
POLYLINE
  5
49F
330
1F
100
AcDbEntity
  8
LIVELLO_1
 62
     7
100
AcDb2dPolyline
 66
     1
 10
0.0
 20
0.0
 30
0.0
  0
VERTEX
  5
4A0
330
49F
100
AcDbEntity
  8
LIVELLO_1
 62
     7
100
AcDbVertex
100
AcDb2dVertex
 10
72.22563771923424
 20
-174.9155840017497
 30
0.0
  0
VERTEX
  5
4A1
330
49F
100
AcDbEntity
  8
LIVELLO_1
 62
     7
100
AcDbVertex
100
AcDb2dVertex
 10
72.10137725997838
 20
-174.7913235424875
 30
0.0
  0
SEQEND
  5
4A2
330
49F
100
AcDbEntity
  8
LIVELLO_1
 62
     7
  0
POLYLINE
  5
4A3
330
1F
100
AcDbEntity
  8
LIVELLO_1
 62
     7
100
AcDb2dPolyline
 66
     1
 10
0.0
 20
0.0
 30
0.0
  0
VERTEX
  5
4A4
330
4A3
100
AcDbEntity
  8
LIVELLO_1
 62
     7
100
AcDbVertex
100
AcDb2dVertex
 10
73.59285354166175
 20
-174.7913235424875
 30
0.0
  0
VERTEX
  5
4A5
330
4A3
100
AcDbEntity
  8
LIVELLO_1
 62
     7
100
AcDbVertex
100
AcDb2dVertex
 10
73.4685053897653
 20
-174.9155840017497
 30
0.0
  0
SEQEND
  5
4A6
330
4A3
100
AcDbEntity
  8
LIVELLO_1
 62
     7
  0
POLYLINE
  5
4A7
330
1F
100
AcDbEntity
  8
LIVELLO_1
 62
     7
100
AcDb2dPolyline
 66
     1
 10
0.0
 20
0.0
 30
0.0
  0
VERTEX
  5
4A8
330
4A7
100
AcDbEntity
  8
LIVELLO_1
 62
     7
100
AcDbVertex
100
AcDb2dVertex
 10
73.4685053897653
 20
-174.9155840017497
 30
0.0
  0
VERTEX
  5
4A9
330
4A7
100
AcDbEntity
  8
LIVELLO_1
 62
     7
100
AcDbVertex
100
AcDb2dVertex
 10
72.22563771923424
 20
-174.9155840017497
 30
0.0
  0
SEQEND
  5
4AA
330
4A7
100
AcDbEntity
  8
LIVELLO_1
 62
     7
  0
POLYLINE
  5
4AB
330
1F
100
AcDbEntity
  8
LIVELLO_1
 62
     7
100
AcDb2dPolyline
 66
     1
 10
0.0
 20
0.0
 30
0.0
  0
VERTEX
  5
4AC
330
4AB
100
AcDbEntity
  8
LIVELLO_1
 62
     7
100
AcDbVertex
100
AcDb2dVertex
 10
73.4685053897653
 20
-174.9155840017497
 30
0.0
  0
VERTEX
  5
4AD
330
4AB
100
AcDbEntity
  8
LIVELLO_1
 62
     7
100
AcDbVertex
100
AcDb2dVertex
 10
73.4685053897653
 20
-176.1585393649086
 30
0.0
  0
SEQEND
  5
4AE
330
4AB
100
AcDbEntity
  8
LIVELLO_1
 62
     7
  0
POLYLINE
  5
4AF
330
1F
100
AcDbEntity
  8
LIVELLO_1
 62
     7
100
AcDb2dPolyline
 66
     1
 10
0.0
 20
0.0
 30
0.0
  0
VERTEX
  5
4B0
330
4AF
100
AcDbEntity
  8
LIVELLO_1
 62
     7
100
AcDbVertex
100
AcDb2dVertex
 10
73.59285354166175
 20
-176.2827998241773
 30
0.0
  0
VERTEX
  5
4B1
330
4AF
100
AcDbEntity
  8
LIVELLO_1
 62
     7
100
AcDbVertex
100
AcDb2dVertex
 10
73.4685053897653
 20
-176.1585393649086
 30
0.0
  0
SEQEND
  5
4B2
330
4AF
100
AcDbEntity
  8
LIVELLO_1
 62
     7
  0
POLYLINE
  5
4B3
330
1F
100
AcDbEntity
  8
LIVELLO_1
 62
     7
100
AcDb2dPolyline
 66
     1
 10
0.0
 20
0.0
 30
0.0
  0
VERTEX
  5
4B4
330
4B3
100
AcDbEntity
  8
LIVELLO_1
 62
     7
100
AcDbVertex
100
AcDb2dVertex
 10
72.10137725997838
 20
-176.2827998241773
 30
0.0
  0
VERTEX
  5
4B5
330
4B3
100
AcDbEntity
  8
LIVELLO_1
 62
     7
100
AcDbVertex
100
AcDb2dVertex
 10
72.22563771923424
 20
-176.1585393649086
 30
0.0
  0
SEQEND
  5
4B6
330
4B3
100
AcDbEntity
  8
LIVELLO_1
 62
     7
  0
POLYLINE
  5
4B7
330
1F
100
AcDbEntity
  8
LIVELLO_1
 62
     7
100
AcDb2dPolyline
 66
     1
 10
0.0
 20
0.0
 30
0.0
  0
VERTEX
  5
4B8
330
4B7
100
AcDbEntity
  8
LIVELLO_1
 62
     7
100
AcDbVertex
100
AcDb2dVertex
 10
73.4685053897653
 20
-176.1585393649086
 30
0.0
  0
VERTEX
  5
4B9
330
4B7
100
AcDbEntity
  8
LIVELLO_1
 62
     7
100
AcDbVertex
100
AcDb2dVertex
 10
72.22563771923424
 20
-176.1585393649086
 30
0.0
  0
SEQEND
  5
4BA
330
4B7
100
AcDbEntity
  8
LIVELLO_1
 62
     7
  0
POLYLINE
  5
4BB
330
1F
100
AcDbEntity
  8
LIVELLO_1
 62
     7
100
AcDb2dPolyline
 66
     1
 10
0.0
 20
0.0
 30
0.0
  0
VERTEX
  5
4BC
330
4BB
100
AcDbEntity
  8
LIVELLO_1
 62
     7
100
AcDbVertex
100
AcDb2dVertex
 10
72.22563771923424
 20
-176.1585393649086
 30
0.0
  0
VERTEX
  5
4BD
330
4BB
100
AcDbEntity
  8
LIVELLO_1
 62
     7
100
AcDbVertex
100
AcDb2dVertex
 10
72.22563771923424
 20
-174.9155840017497
 30
0.0
  0
SEQEND
  5
4BE
330
4BB
100
AcDbEntity
  8
LIVELLO_1
 62
     7
  0
POLYLINE
  5
4BF
330
1F
100
AcDbEntity
  8
LIVELLO_1
 62
     7
100
AcDb2dPolyline
 66
     1
 10
0.0
 20
0.0
 30
0.0
  0
VERTEX
  5
4C0
330
4BF
100
AcDbEntity
  8
LIVELLO_1
 62
     7
100
AcDbVertex
100
AcDb2dVertex
 10
72.22563771923424
 20
-169.9441133196262
 30
0.0
  0
VERTEX
  5
4C1
330
4BF
100
AcDbEntity
  8
LIVELLO_1
 62
     7
100
AcDbVertex
100
AcDb2dVertex
 10
72.10137725997838
 20
-169.8197651677303
 30
0.0
  0
SEQEND
  5
4C2
330
4BF
100
AcDbEntity
  8
LIVELLO_1
 62
     7
  0
POLYLINE
  5
4C3
330
1F
100
AcDbEntity
  8
LIVELLO_1
 62
     7
100
AcDb2dPolyline
 66
     1
 10
0.0
 20
0.0
 30
0.0
  0
VERTEX
  5
4C4
330
4C3
100
AcDbEntity
  8
LIVELLO_1
 62
     7
100
AcDbVertex
100
AcDb2dVertex
 10
73.59285354166175
 20
-169.8197651677303
 30
0.0
  0
VERTEX
  5
4C5
330
4C3
100
AcDbEntity
  8
LIVELLO_1
 62
     7
100
AcDbVertex
100
AcDb2dVertex
 10
73.4685053897653
 20
-169.9441133196262
 30
0.0
  0
SEQEND
  5
4C6
330
4C3
100
AcDbEntity
  8
LIVELLO_1
 62
     7
  0
POLYLINE
  5
4C7
330
1F
100
AcDbEntity
  8
LIVELLO_1
 62
     7
100
AcDb2dPolyline
 66
     1
 10
0.0
 20
0.0
 30
0.0
  0
VERTEX
  5
4C8
330
4C7
100
AcDbEntity
  8
LIVELLO_1
 62
     7
100
AcDbVertex
100
AcDb2dVertex
 10
73.4685053897653
 20
-169.9441133196262
 30
0.0
  0
VERTEX
  5
4C9
330
4C7
100
AcDbEntity
  8
LIVELLO_1
 62
     7
100
AcDbVertex
100
AcDb2dVertex
 10
72.22563771923424
 20
-169.9441133196262
 30
0.0
  0
SEQEND
  5
4CA
330
4C7
100
AcDbEntity
  8
LIVELLO_1
 62
     7
  0
POLYLINE
  5
4CB
330
1F
100
AcDbEntity
  8
LIVELLO_1
 62
     7
100
AcDb2dPolyline
 66
     1
 10
0.0
 20
0.0
 30
0.0
  0
VERTEX
  5
4CC
330
4CB
100
AcDbEntity
  8
LIVELLO_1
 62
     7
100
AcDbVertex
100
AcDb2dVertex
 10
73.4685053897653
 20
-169.9441133196262
 30
0.0
  0
VERTEX
  5
4CD
330
4CB
100
AcDbEntity
  8
LIVELLO_1
 62
     7
100
AcDbVertex
100
AcDb2dVertex
 10
73.4685053897653
 20
-171.1869809901572
 30
0.0
  0
SEQEND
  5
4CE
330
4CB
100
AcDbEntity
  8
LIVELLO_1
 62
     7
  0
POLYLINE
  5
4CF
330
1F
100
AcDbEntity
  8
LIVELLO_1
 62
     7
100
AcDb2dPolyline
 66
     1
 10
0.0
 20
0.0
 30
0.0
  0
VERTEX
  5
4D0
330
4CF
100
AcDbEntity
  8
LIVELLO_1
 62
     7
100
AcDbVertex
100
AcDb2dVertex
 10
73.4685053897653
 20
-171.1869809901572
 30
0.0
  0
VERTEX
  5
4D1
330
4CF
100
AcDbEntity
  8
LIVELLO_1
 62
     7
100
AcDbVertex
100
AcDb2dVertex
 10
73.59285354166175
 20
-171.3112414494259
 30
0.0
  0
SEQEND
  5
4D2
330
4CF
100
AcDbEntity
  8
LIVELLO_1
 62
     7
  0
POLYLINE
  5
4D3
330
1F
100
AcDbEntity
  8
LIVELLO_1
 62
     7
100
AcDb2dPolyline
 66
     1
 10
0.0
 20
0.0
 30
0.0
  0
VERTEX
  5
4D4
330
4D3
100
AcDbEntity
  8
LIVELLO_1
 62
     7
100
AcDbVertex
100
AcDb2dVertex
 10
72.10137725997838
 20
-171.3112414494259
 30
0.0
  0
VERTEX
  5
4D5
330
4D3
100
AcDbEntity
  8
LIVELLO_1
 62
     7
100
AcDbVertex
100
AcDb2dVertex
 10
72.22563771923424
 20
-171.1869809901572
 30
0.0
  0
SEQEND
  5
4D6
330
4D3
100
AcDbEntity
  8
LIVELLO_1
 62
     7
  0
POLYLINE
  5
4D7
330
1F
100
AcDbEntity
  8
LIVELLO_1
 62
     7
100
AcDb2dPolyline
 66
     1
 10
0.0
 20
0.0
 30
0.0
  0
VERTEX
  5
4D8
330
4D7
100
AcDbEntity
  8
LIVELLO_1
 62
     7
100
AcDbVertex
100
AcDb2dVertex
 10
73.4685053897653
 20
-171.1869809901572
 30
0.0
  0
VERTEX
  5
4D9
330
4D7
100
AcDbEntity
  8
LIVELLO_1
 62
     7
100
AcDbVertex
100
AcDb2dVertex
 10
72.22563771923424
 20
-171.1869809901572
 30
0.0
  0
SEQEND
  5
4DA
330
4D7
100
AcDbEntity
  8
LIVELLO_1
 62
     7
  0
POLYLINE
  5
4DB
330
1F
100
AcDbEntity
  8
LIVELLO_1
 62
     7
100
AcDb2dPolyline
 66
     1
 10
0.0
 20
0.0
 30
0.0
  0
VERTEX
  5
4DC
330
4DB
100
AcDbEntity
  8
LIVELLO_1
 62
     7
100
AcDbVertex
100
AcDb2dVertex
 10
72.22563771923424
 20
-171.1869809901572
 30
0.0
  0
VERTEX
  5
4DD
330
4DB
100
AcDbEntity
  8
LIVELLO_1
 62
     7
100
AcDbVertex
100
AcDb2dVertex
 10
72.22563771923424
 20
-169.9441133196262
 30
0.0
  0
SEQEND
  5
4DE
330
4DB
100
AcDbEntity
  8
LIVELLO_1
 62
     7
  0
POLYLINE
  5
4DF
330
1F
100
AcDbEntity
  8
LIVELLO_1
 62
     7
100
AcDb2dPolyline
 66
     1
 10
0.0
 20
0.0
 30
0.0
  0
VERTEX
  5
4E0
330
4DF
100
AcDbEntity
  8
LIVELLO_1
 62
     7
100
AcDbVertex
100
AcDb2dVertex
 10
72.22563771923424
 20
-164.9725549448748
 30
0.0
  0
VERTEX
  5
4E1
330
4DF
100
AcDbEntity
  8
LIVELLO_1
 62
     7
100
AcDbVertex
100
AcDb2dVertex
 10
72.10137725997838
 20
-164.8482067929789
 30
0.0
  0
SEQEND
  5
4E2
330
4DF
100
AcDbEntity
  8
LIVELLO_1
 62
     7
  0
POLYLINE
  5
4E3
330
1F
100
AcDbEntity
  8
LIVELLO_1
 62
     7
100
AcDb2dPolyline
 66
     1
 10
0.0
 20
0.0
 30
0.0
  0
VERTEX
  5
4E4
330
4E3
100
AcDbEntity
  8
LIVELLO_1
 62
     7
100
AcDbVertex
100
AcDb2dVertex
 10
73.59285354166175
 20
-164.8482067929789
 30
0.0
  0
VERTEX
  5
4E5
330
4E3
100
AcDbEntity
  8
LIVELLO_1
 62
     7
100
AcDbVertex
100
AcDb2dVertex
 10
73.4685053897653
 20
-164.9725549448748
 30
0.0
  0
SEQEND
  5
4E6
330
4E3
100
AcDbEntity
  8
LIVELLO_1
 62
     7
  0
POLYLINE
  5
4E7
330
1F
100
AcDbEntity
  8
LIVELLO_1
 62
     7
100
AcDb2dPolyline
 66
     1
 10
0.0
 20
0.0
 30
0.0
  0
VERTEX
  5
4E8
330
4E7
100
AcDbEntity
  8
LIVELLO_1
 62
     7
100
AcDbVertex
100
AcDb2dVertex
 10
72.22563771923424
 20
-164.9725549448748
 30
0.0
  0
VERTEX
  5
4E9
330
4E7
100
AcDbEntity
  8
LIVELLO_1
 62
     7
100
AcDbVertex
100
AcDb2dVertex
 10
73.4685053897653
 20
-164.9725549448748
 30
0.0
  0
SEQEND
  5
4EA
330
4E7
100
AcDbEntity
  8
LIVELLO_1
 62
     7
  0
POLYLINE
  5
4EB
330
1F
100
AcDbEntity
  8
LIVELLO_1
 62
     7
100
AcDb2dPolyline
 66
     1
 10
0.0
 20
0.0
 30
0.0
  0
VERTEX
  5
4EC
330
4EB
100
AcDbEntity
  8
LIVELLO_1
 62
     7
100
AcDbVertex
100
AcDb2dVertex
 10
73.4685053897653
 20
-164.9725549448748
 30
0.0
  0
VERTEX
  5
4ED
330
4EB
100
AcDbEntity
  8
LIVELLO_1
 62
     7
100
AcDbVertex
100
AcDb2dVertex
 10
73.4685053897653
 20
-166.2154226154058
 30
0.0
  0
SEQEND
  5
4EE
330
4EB
100
AcDbEntity
  8
LIVELLO_1
 62
     7
  0
POLYLINE
  5
4EF
330
1F
100
AcDbEntity
  8
LIVELLO_1
 62
     7
100
AcDb2dPolyline
 66
     1
 10
0.0
 20
0.0
 30
0.0
  0
VERTEX
  5
4F0
330
4EF
100
AcDbEntity
  8
LIVELLO_1
 62
     7
100
AcDbVertex
100
AcDb2dVertex
 10
73.4685053897653
 20
-166.2154226154058
 30
0.0
  0
VERTEX
  5
4F1
330
4EF
100
AcDbEntity
  8
LIVELLO_1
 62
     7
100
AcDbVertex
100
AcDb2dVertex
 10
73.59285354166175
 20
-166.3396830746745
 30
0.0
  0
SEQEND
  5
4F2
330
4EF
100
AcDbEntity
  8
LIVELLO_1
 62
     7
  0
POLYLINE
  5
4F3
330
1F
100
AcDbEntity
  8
LIVELLO_1
 62
     7
100
AcDb2dPolyline
 66
     1
 10
0.0
 20
0.0
 30
0.0
  0
VERTEX
  5
4F4
330
4F3
100
AcDbEntity
  8
LIVELLO_1
 62
     7
100
AcDbVertex
100
AcDb2dVertex
 10
72.10137725997838
 20
-166.3396830746745
 30
0.0
  0
VERTEX
  5
4F5
330
4F3
100
AcDbEntity
  8
LIVELLO_1
 62
     7
100
AcDbVertex
100
AcDb2dVertex
 10
72.22563771923424
 20
-166.2154226154058
 30
0.0
  0
SEQEND
  5
4F6
330
4F3
100
AcDbEntity
  8
LIVELLO_1
 62
     7
  0
POLYLINE
  5
4F7
330
1F
100
AcDbEntity
  8
LIVELLO_1
 62
     7
100
AcDb2dPolyline
 66
     1
 10
0.0
 20
0.0
 30
0.0
  0
VERTEX
  5
4F8
330
4F7
100
AcDbEntity
  8
LIVELLO_1
 62
     7
100
AcDbVertex
100
AcDb2dVertex
 10
73.4685053897653
 20
-166.2154226154058
 30
0.0
  0
VERTEX
  5
4F9
330
4F7
100
AcDbEntity
  8
LIVELLO_1
 62
     7
100
AcDbVertex
100
AcDb2dVertex
 10
72.22563771923424
 20
-166.2154226154058
 30
0.0
  0
SEQEND
  5
4FA
330
4F7
100
AcDbEntity
  8
LIVELLO_1
 62
     7
  0
POLYLINE
  5
4FB
330
1F
100
AcDbEntity
  8
LIVELLO_1
 62
     7
100
AcDb2dPolyline
 66
     1
 10
0.0
 20
0.0
 30
0.0
  0
VERTEX
  5
4FC
330
4FB
100
AcDbEntity
  8
LIVELLO_1
 62
     7
100
AcDbVertex
100
AcDb2dVertex
 10
72.22563771923424
 20
-166.2154226154058
 30
0.0
  0
VERTEX
  5
4FD
330
4FB
100
AcDbEntity
  8
LIVELLO_1
 62
     7
100
AcDbVertex
100
AcDb2dVertex
 10
72.22563771923424
 20
-164.9725549448748
 30
0.0
  0
SEQEND
  5
4FE
330
4FB
100
AcDbEntity
  8
LIVELLO_1
 62
     7
  0
POLYLINE
  5
4FF
330
1F
100
AcDbEntity
  8
LIVELLO_1
 62
     7
100
AcDb2dPolyline
 66
     1
 10
0.0
 20
0.0
 30
0.0
  0
VERTEX
  5
500
330
4FF
100
AcDbEntity
  8
LIVELLO_1
 62
     7
100
AcDbVertex
100
AcDb2dVertex
 10
72.22563771923424
 20
-160.000996570124
 30
0.0
  0
VERTEX
  5
501
330
4FF
100
AcDbEntity
  8
LIVELLO_1
 62
     7
100
AcDbVertex
100
AcDb2dVertex
 10
72.10137725997838
 20
-159.8766484182276
 30
0.0
  0
SEQEND
  5
502
330
4FF
100
AcDbEntity
  8
LIVELLO_1
 62
     7
  0
POLYLINE
  5
503
330
1F
100
AcDbEntity
  8
LIVELLO_1
 62
     7
100
AcDb2dPolyline
 66
     1
 10
0.0
 20
0.0
 30
0.0
  0
VERTEX
  5
504
330
503
100
AcDbEntity
  8
LIVELLO_1
 62
     7
100
AcDbVertex
100
AcDb2dVertex
 10
73.59285354166175
 20
-159.8766484182276
 30
0.0
  0
VERTEX
  5
505
330
503
100
AcDbEntity
  8
LIVELLO_1
 62
     7
100
AcDbVertex
100
AcDb2dVertex
 10
73.4685053897653
 20
-160.000996570124
 30
0.0
  0
SEQEND
  5
506
330
503
100
AcDbEntity
  8
LIVELLO_1
 62
     7
  0
POLYLINE
  5
507
330
1F
100
AcDbEntity
  8
LIVELLO_1
 62
     7
100
AcDb2dPolyline
 66
     1
 10
0.0
 20
0.0
 30
0.0
  0
VERTEX
  5
508
330
507
100
AcDbEntity
  8
LIVELLO_1
 62
     7
100
AcDbVertex
100
AcDb2dVertex
 10
72.22563771923424
 20
-160.000996570124
 30
0.0
  0
VERTEX
  5
509
330
507
100
AcDbEntity
  8
LIVELLO_1
 62
     7
100
AcDbVertex
100
AcDb2dVertex
 10
73.4685053897653
 20
-160.000996570124
 30
0.0
  0
SEQEND
  5
50A
330
507
100
AcDbEntity
  8
LIVELLO_1
 62
     7
  0
POLYLINE
  5
50B
330
1F
100
AcDbEntity
  8
LIVELLO_1
 62
     7
100
AcDb2dPolyline
 66
     1
 10
0.0
 20
0.0
 30
0.0
  0
VERTEX
  5
50C
330
50B
100
AcDbEntity
  8
LIVELLO_1
 62
     7
100
AcDbVertex
100
AcDb2dVertex
 10
73.4685053897653
 20
-160.000996570124
 30
0.0
  0
VERTEX
  5
50D
330
50B
100
AcDbEntity
  8
LIVELLO_1
 62
     7
100
AcDbVertex
100
AcDb2dVertex
 10
73.4685053897653
 20
-161.2438642406545
 30
0.0
  0
SEQEND
  5
50E
330
50B
100
AcDbEntity
  8
LIVELLO_1
 62
     7
  0
POLYLINE
  5
50F
330
1F
100
AcDbEntity
  8
LIVELLO_1
 62
     7
100
AcDb2dPolyline
 66
     1
 10
0.0
 20
0.0
 30
0.0
  0
VERTEX
  5
510
330
50F
100
AcDbEntity
  8
LIVELLO_1
 62
     7
100
AcDbVertex
100
AcDb2dVertex
 10
73.59285354166175
 20
-161.3681246999231
 30
0.0
  0
VERTEX
  5
511
330
50F
100
AcDbEntity
  8
LIVELLO_1
 62
     7
100
AcDbVertex
100
AcDb2dVertex
 10
73.4685053897653
 20
-161.2438642406545
 30
0.0
  0
SEQEND
  5
512
330
50F
100
AcDbEntity
  8
LIVELLO_1
 62
     7
  0
POLYLINE
  5
513
330
1F
100
AcDbEntity
  8
LIVELLO_1
 62
     7
100
AcDb2dPolyline
 66
     1
 10
0.0
 20
0.0
 30
0.0
  0
VERTEX
  5
514
330
513
100
AcDbEntity
  8
LIVELLO_1
 62
     7
100
AcDbVertex
100
AcDb2dVertex
 10
72.10137725997838
 20
-161.3681246999231
 30
0.0
  0
VERTEX
  5
515
330
513
100
AcDbEntity
  8
LIVELLO_1
 62
     7
100
AcDbVertex
100
AcDb2dVertex
 10
72.22563771923424
 20
-161.2438642406545
 30
0.0
  0
SEQEND
  5
516
330
513
100
AcDbEntity
  8
LIVELLO_1
 62
     7
  0
POLYLINE
  5
517
330
1F
100
AcDbEntity
  8
LIVELLO_1
 62
     7
100
AcDb2dPolyline
 66
     1
 10
0.0
 20
0.0
 30
0.0
  0
VERTEX
  5
518
330
517
100
AcDbEntity
  8
LIVELLO_1
 62
     7
100
AcDbVertex
100
AcDb2dVertex
 10
73.4685053897653
 20
-161.2438642406545
 30
0.0
  0
VERTEX
  5
519
330
517
100
AcDbEntity
  8
LIVELLO_1
 62
     7
100
AcDbVertex
100
AcDb2dVertex
 10
72.22563771923424
 20
-161.2438642406545
 30
0.0
  0
SEQEND
  5
51A
330
517
100
AcDbEntity
  8
LIVELLO_1
 62
     7
  0
POLYLINE
  5
51B
330
1F
100
AcDbEntity
  8
LIVELLO_1
 62
     7
100
AcDb2dPolyline
 66
     1
 10
0.0
 20
0.0
 30
0.0
  0
VERTEX
  5
51C
330
51B
100
AcDbEntity
  8
LIVELLO_1
 62
     7
100
AcDbVertex
100
AcDb2dVertex
 10
72.22563771923424
 20
-161.2438642406545
 30
0.0
  0
VERTEX
  5
51D
330
51B
100
AcDbEntity
  8
LIVELLO_1
 62
     7
100
AcDbVertex
100
AcDb2dVertex
 10
72.22563771923424
 20
-160.000996570124
 30
0.0
  0
SEQEND
  5
51E
330
51B
100
AcDbEntity
  8
LIVELLO_1
 62
     7
  0
POLYLINE
  5
51F
330
1F
100
AcDbEntity
  8
LIVELLO_1
 62
     7
100
AcDb2dPolyline
 66
     1
 10
0.0
 20
0.0
 30
0.0
  0
VERTEX
  5
520
330
51F
100
AcDbEntity
  8
LIVELLO_1
 62
     7
100
AcDbVertex
100
AcDb2dVertex
 10
72.22563771923424
 20
-155.0294381953726
 30
0.0
  0
VERTEX
  5
521
330
51F
100
AcDbEntity
  8
LIVELLO_1
 62
     7
100
AcDbVertex
100
AcDb2dVertex
 10
72.10137725997838
 20
-154.9050900434762
 30
0.0
  0
SEQEND
  5
522
330
51F
100
AcDbEntity
  8
LIVELLO_1
 62
     7
  0
POLYLINE
  5
523
330
1F
100
AcDbEntity
  8
LIVELLO_1
 62
     7
100
AcDb2dPolyline
 66
     1
 10
0.0
 20
0.0
 30
0.0
  0
VERTEX
  5
524
330
523
100
AcDbEntity
  8
LIVELLO_1
 62
     7
100
AcDbVertex
100
AcDb2dVertex
 10
73.59285354166175
 20
-154.9050900434762
 30
0.0
  0
VERTEX
  5
525
330
523
100
AcDbEntity
  8
LIVELLO_1
 62
     7
100
AcDbVertex
100
AcDb2dVertex
 10
73.4685053897653
 20
-155.0294381953726
 30
0.0
  0
SEQEND
  5
526
330
523
100
AcDbEntity
  8
LIVELLO_1
 62
     7
  0
POLYLINE
  5
527
330
1F
100
AcDbEntity
  8
LIVELLO_1
 62
     7
100
AcDb2dPolyline
 66
     1
 10
0.0
 20
0.0
 30
0.0
  0
VERTEX
  5
528
330
527
100
AcDbEntity
  8
LIVELLO_1
 62
     7
100
AcDbVertex
100
AcDb2dVertex
 10
72.22563771923424
 20
-155.0294381953726
 30
0.0
  0
VERTEX
  5
529
330
527
100
AcDbEntity
  8
LIVELLO_1
 62
     7
100
AcDbVertex
100
AcDb2dVertex
 10
73.4685053897653
 20
-155.0294381953726
 30
0.0
  0
SEQEND
  5
52A
330
527
100
AcDbEntity
  8
LIVELLO_1
 62
     7
  0
POLYLINE
  5
52B
330
1F
100
AcDbEntity
  8
LIVELLO_1
 62
     7
100
AcDb2dPolyline
 66
     1
 10
0.0
 20
0.0
 30
0.0
  0
VERTEX
  5
52C
330
52B
100
AcDbEntity
  8
LIVELLO_1
 62
     7
100
AcDbVertex
100
AcDb2dVertex
 10
73.4685053897653
 20
-155.0294381953726
 30
0.0
  0
VERTEX
  5
52D
330
52B
100
AcDbEntity
  8
LIVELLO_1
 62
     7
100
AcDbVertex
100
AcDb2dVertex
 10
73.4685053897653
 20
-156.2723058659031
 30
0.0
  0
SEQEND
  5
52E
330
52B
100
AcDbEntity
  8
LIVELLO_1
 62
     7
  0
POLYLINE
  5
52F
330
1F
100
AcDbEntity
  8
LIVELLO_1
 62
     7
100
AcDb2dPolyline
 66
     1
 10
0.0
 20
0.0
 30
0.0
  0
VERTEX
  5
530
330
52F
100
AcDbEntity
  8
LIVELLO_1
 62
     7
100
AcDbVertex
100
AcDb2dVertex
 10
73.59285354166175
 20
-156.3965663251718
 30
0.0
  0
VERTEX
  5
531
330
52F
100
AcDbEntity
  8
LIVELLO_1
 62
     7
100
AcDbVertex
100
AcDb2dVertex
 10
73.4685053897653
 20
-156.2723058659031
 30
0.0
  0
SEQEND
  5
532
330
52F
100
AcDbEntity
  8
LIVELLO_1
 62
     7
  0
POLYLINE
  5
533
330
1F
100
AcDbEntity
  8
LIVELLO_1
 62
     7
100
AcDb2dPolyline
 66
     1
 10
0.0
 20
0.0
 30
0.0
  0
VERTEX
  5
534
330
533
100
AcDbEntity
  8
LIVELLO_1
 62
     7
100
AcDbVertex
100
AcDb2dVertex
 10
72.10137725997838
 20
-156.3965663251718
 30
0.0
  0
VERTEX
  5
535
330
533
100
AcDbEntity
  8
LIVELLO_1
 62
     7
100
AcDbVertex
100
AcDb2dVertex
 10
72.22563771923424
 20
-156.2723058659031
 30
0.0
  0
SEQEND
  5
536
330
533
100
AcDbEntity
  8
LIVELLO_1
 62
     7
  0
POLYLINE
  5
537
330
1F
100
AcDbEntity
  8
LIVELLO_1
 62
     7
100
AcDb2dPolyline
 66
     1
 10
0.0
 20
0.0
 30
0.0
  0
VERTEX
  5
538
330
537
100
AcDbEntity
  8
LIVELLO_1
 62
     7
100
AcDbVertex
100
AcDb2dVertex
 10
73.4685053897653
 20
-156.2723058659031
 30
0.0
  0
VERTEX
  5
539
330
537
100
AcDbEntity
  8
LIVELLO_1
 62
     7
100
AcDbVertex
100
AcDb2dVertex
 10
72.22563771923424
 20
-156.2723058659031
 30
0.0
  0
SEQEND
  5
53A
330
537
100
AcDbEntity
  8
LIVELLO_1
 62
     7
  0
POLYLINE
  5
53B
330
1F
100
AcDbEntity
  8
LIVELLO_1
 62
     7
100
AcDb2dPolyline
 66
     1
 10
0.0
 20
0.0
 30
0.0
  0
VERTEX
  5
53C
330
53B
100
AcDbEntity
  8
LIVELLO_1
 62
     7
100
AcDbVertex
100
AcDb2dVertex
 10
72.22563771923424
 20
-156.2723058659031
 30
0.0
  0
VERTEX
  5
53D
330
53B
100
AcDbEntity
  8
LIVELLO_1
 62
     7
100
AcDbVertex
100
AcDb2dVertex
 10
72.22563771923424
 20
-155.0294381953726
 30
0.0
  0
SEQEND
  5
53E
330
53B
100
AcDbEntity
  8
LIVELLO_1
 62
     7
  0
POLYLINE
  5
53F
330
1F
100
AcDbEntity
  8
LIVELLO_1
 62
     7
100
AcDb2dPolyline
 66
     1
 10
0.0
 20
0.0
 30
0.0
  0
VERTEX
  5
540
330
53F
100
AcDbEntity
  8
LIVELLO_1
 62
     7
100
AcDbVertex
100
AcDb2dVertex
 10
72.22563771923424
 20
-150.0578798206213
 30
0.0
  0
VERTEX
  5
541
330
53F
100
AcDbEntity
  8
LIVELLO_1
 62
     7
100
AcDbVertex
100
AcDb2dVertex
 10
72.10137725997838
 20
-149.933619361359
 30
0.0
  0
SEQEND
  5
542
330
53F
100
AcDbEntity
  8
LIVELLO_1
 62
     7
  0
POLYLINE
  5
543
330
1F
100
AcDbEntity
  8
LIVELLO_1
 62
     7
100
AcDb2dPolyline
 66
     1
 10
0.0
 20
0.0
 30
0.0
  0
VERTEX
  5
544
330
543
100
AcDbEntity
  8
LIVELLO_1
 62
     7
100
AcDbVertex
100
AcDb2dVertex
 10
73.59285354166175
 20
-149.933619361359
 30
0.0
  0
VERTEX
  5
545
330
543
100
AcDbEntity
  8
LIVELLO_1
 62
     7
100
AcDbVertex
100
AcDb2dVertex
 10
73.4685053897653
 20
-150.0578798206213
 30
0.0
  0
SEQEND
  5
546
330
543
100
AcDbEntity
  8
LIVELLO_1
 62
     7
  0
POLYLINE
  5
547
330
1F
100
AcDbEntity
  8
LIVELLO_1
 62
     7
100
AcDb2dPolyline
 66
     1
 10
0.0
 20
0.0
 30
0.0
  0
VERTEX
  5
548
330
547
100
AcDbEntity
  8
LIVELLO_1
 62
     7
100
AcDbVertex
100
AcDb2dVertex
 10
72.22563771923424
 20
-150.0578798206213
 30
0.0
  0
VERTEX
  5
549
330
547
100
AcDbEntity
  8
LIVELLO_1
 62
     7
100
AcDbVertex
100
AcDb2dVertex
 10
73.4685053897653
 20
-150.0578798206213
 30
0.0
  0
SEQEND
  5
54A
330
547
100
AcDbEntity
  8
LIVELLO_1
 62
     7
  0
POLYLINE
  5
54B
330
1F
100
AcDbEntity
  8
LIVELLO_1
 62
     7
100
AcDb2dPolyline
 66
     1
 10
0.0
 20
0.0
 30
0.0
  0
VERTEX
  5
54C
330
54B
100
AcDbEntity
  8
LIVELLO_1
 62
     7
100
AcDbVertex
100
AcDb2dVertex
 10
73.4685053897653
 20
-150.0578798206213
 30
0.0
  0
VERTEX
  5
54D
330
54B
100
AcDbEntity
  8
LIVELLO_1
 62
     7
100
AcDbVertex
100
AcDb2dVertex
 10
73.4685053897653
 20
-151.3007474911523
 30
0.0
  0
SEQEND
  5
54E
330
54B
100
AcDbEntity
  8
LIVELLO_1
 62
     7
  0
POLYLINE
  5
54F
330
1F
100
AcDbEntity
  8
LIVELLO_1
 62
     7
100
AcDb2dPolyline
 66
     1
 10
0.0
 20
0.0
 30
0.0
  0
VERTEX
  5
550
330
54F
100
AcDbEntity
  8
LIVELLO_1
 62
     7
100
AcDbVertex
100
AcDb2dVertex
 10
73.59285354166175
 20
-151.425007950421
 30
0.0
  0
VERTEX
  5
551
330
54F
100
AcDbEntity
  8
LIVELLO_1
 62
     7
100
AcDbVertex
100
AcDb2dVertex
 10
73.4685053897653
 20
-151.3007474911523
 30
0.0
  0
SEQEND
  5
552
330
54F
100
AcDbEntity
  8
LIVELLO_1
 62
     7
  0
POLYLINE
  5
553
330
1F
100
AcDbEntity
  8
LIVELLO_1
 62
     7
100
AcDb2dPolyline
 66
     1
 10
0.0
 20
0.0
 30
0.0
  0
VERTEX
  5
554
330
553
100
AcDbEntity
  8
LIVELLO_1
 62
     7
100
AcDbVertex
100
AcDb2dVertex
 10
72.10137725997838
 20
-151.425007950421
 30
0.0
  0
VERTEX
  5
555
330
553
100
AcDbEntity
  8
LIVELLO_1
 62
     7
100
AcDbVertex
100
AcDb2dVertex
 10
72.22563771923424
 20
-151.3007474911523
 30
0.0
  0
SEQEND
  5
556
330
553
100
AcDbEntity
  8
LIVELLO_1
 62
     7
  0
POLYLINE
  5
557
330
1F
100
AcDbEntity
  8
LIVELLO_1
 62
     7
100
AcDb2dPolyline
 66
     1
 10
0.0
 20
0.0
 30
0.0
  0
VERTEX
  5
558
330
557
100
AcDbEntity
  8
LIVELLO_1
 62
     7
100
AcDbVertex
100
AcDb2dVertex
 10
73.4685053897653
 20
-151.3007474911523
 30
0.0
  0
VERTEX
  5
559
330
557
100
AcDbEntity
  8
LIVELLO_1
 62
     7
100
AcDbVertex
100
AcDb2dVertex
 10
72.22563771923424
 20
-151.3007474911523
 30
0.0
  0
SEQEND
  5
55A
330
557
100
AcDbEntity
  8
LIVELLO_1
 62
     7
  0
POLYLINE
  5
55B
330
1F
100
AcDbEntity
  8
LIVELLO_1
 62
     7
100
AcDb2dPolyline
 66
     1
 10
0.0
 20
0.0
 30
0.0
  0
VERTEX
  5
55C
330
55B
100
AcDbEntity
  8
LIVELLO_1
 62
     7
100
AcDbVertex
100
AcDb2dVertex
 10
72.22563771923424
 20
-151.3007474911523
 30
0.0
  0
VERTEX
  5
55D
330
55B
100
AcDbEntity
  8
LIVELLO_1
 62
     7
100
AcDbVertex
100
AcDb2dVertex
 10
72.22563771923424
 20
-150.0578798206213
 30
0.0
  0
SEQEND
  5
55E
330
55B
100
AcDbEntity
  8
LIVELLO_1
 62
     7
  0
POLYLINE
  5
55F
330
1F
100
AcDbEntity
  8
LIVELLO_1
 62
     7
100
AcDb2dPolyline
 66
     1
 10
0.0
 20
0.0
 30
0.0
  0
VERTEX
  5
560
330
55F
100
AcDbEntity
  8
LIVELLO_1
 62
     7
100
AcDbVertex
100
AcDb2dVertex
 10
72.22563771923424
 20
-145.0863214458731
 30
0.0
  0
VERTEX
  5
561
330
55F
100
AcDbEntity
  8
LIVELLO_1
 62
     7
100
AcDbVertex
100
AcDb2dVertex
 10
72.10137725997838
 20
-144.9620609866076
 30
0.0
  0
SEQEND
  5
562
330
55F
100
AcDbEntity
  8
LIVELLO_1
 62
     7
  0
POLYLINE
  5
563
330
1F
100
AcDbEntity
  8
LIVELLO_1
 62
     7
100
AcDb2dPolyline
 66
     1
 10
0.0
 20
0.0
 30
0.0
  0
VERTEX
  5
564
330
563
100
AcDbEntity
  8
LIVELLO_1
 62
     7
100
AcDbVertex
100
AcDb2dVertex
 10
73.59285354166175
 20
-144.9620609866076
 30
0.0
  0
VERTEX
  5
565
330
563
100
AcDbEntity
  8
LIVELLO_1
 62
     7
100
AcDbVertex
100
AcDb2dVertex
 10
73.4685053897653
 20
-145.0863214458731
 30
0.0
  0
SEQEND
  5
566
330
563
100
AcDbEntity
  8
LIVELLO_1
 62
     7
  0
POLYLINE
  5
567
330
1F
100
AcDbEntity
  8
LIVELLO_1
 62
     7
100
AcDb2dPolyline
 66
     1
 10
0.0
 20
0.0
 30
0.0
  0
VERTEX
  5
568
330
567
100
AcDbEntity
  8
LIVELLO_1
 62
     7
100
AcDbVertex
100
AcDb2dVertex
 10
72.22563771923424
 20
-145.0863214458731
 30
0.0
  0
VERTEX
  5
569
330
567
100
AcDbEntity
  8
LIVELLO_1
 62
     7
100
AcDbVertex
100
AcDb2dVertex
 10
73.4685053897653
 20
-145.0863214458731
 30
0.0
  0
SEQEND
  5
56A
330
567
100
AcDbEntity
  8
LIVELLO_1
 62
     7
  0
POLYLINE
  5
56B
330
1F
100
AcDbEntity
  8
LIVELLO_1
 62
     7
100
AcDb2dPolyline
 66
     1
 10
0.0
 20
0.0
 30
0.0
  0
VERTEX
  5
56C
330
56B
100
AcDbEntity
  8
LIVELLO_1
 62
     7
100
AcDbVertex
100
AcDb2dVertex
 10
73.4685053897653
 20
-145.0863214458731
 30
0.0
  0
VERTEX
  5
56D
330
56B
100
AcDbEntity
  8
LIVELLO_1
 62
     7
100
AcDbVertex
100
AcDb2dVertex
 10
73.4685053897653
 20
-146.329189116401
 30
0.0
  0
SEQEND
  5
56E
330
56B
100
AcDbEntity
  8
LIVELLO_1
 62
     7
  0
POLYLINE
  5
56F
330
1F
100
AcDbEntity
  8
LIVELLO_1
 62
     7
100
AcDb2dPolyline
 66
     1
 10
0.0
 20
0.0
 30
0.0
  0
VERTEX
  5
570
330
56F
100
AcDbEntity
  8
LIVELLO_1
 62
     7
100
AcDbVertex
100
AcDb2dVertex
 10
73.59285354166175
 20
-146.4535372682968
 30
0.0
  0
VERTEX
  5
571
330
56F
100
AcDbEntity
  8
LIVELLO_1
 62
     7
100
AcDbVertex
100
AcDb2dVertex
 10
73.4685053897653
 20
-146.329189116401
 30
0.0
  0
SEQEND
  5
572
330
56F
100
AcDbEntity
  8
LIVELLO_1
 62
     7
  0
POLYLINE
  5
573
330
1F
100
AcDbEntity
  8
LIVELLO_1
 62
     7
100
AcDb2dPolyline
 66
     1
 10
0.0
 20
0.0
 30
0.0
  0
VERTEX
  5
574
330
573
100
AcDbEntity
  8
LIVELLO_1
 62
     7
100
AcDbVertex
100
AcDb2dVertex
 10
72.10137725997838
 20
-146.4535372682968
 30
0.0
  0
VERTEX
  5
575
330
573
100
AcDbEntity
  8
LIVELLO_1
 62
     7
100
AcDbVertex
100
AcDb2dVertex
 10
72.22563771923424
 20
-146.329189116401
 30
0.0
  0
SEQEND
  5
576
330
573
100
AcDbEntity
  8
LIVELLO_1
 62
     7
  0
POLYLINE
  5
577
330
1F
100
AcDbEntity
  8
LIVELLO_1
 62
     7
100
AcDb2dPolyline
 66
     1
 10
0.0
 20
0.0
 30
0.0
  0
VERTEX
  5
578
330
577
100
AcDbEntity
  8
LIVELLO_1
 62
     7
100
AcDbVertex
100
AcDb2dVertex
 10
73.4685053897653
 20
-146.329189116401
 30
0.0
  0
VERTEX
  5
579
330
577
100
AcDbEntity
  8
LIVELLO_1
 62
     7
100
AcDbVertex
100
AcDb2dVertex
 10
72.22563771923424
 20
-146.329189116401
 30
0.0
  0
SEQEND
  5
57A
330
577
100
AcDbEntity
  8
LIVELLO_1
 62
     7
  0
POLYLINE
  5
57B
330
1F
100
AcDbEntity
  8
LIVELLO_1
 62
     7
100
AcDb2dPolyline
 66
     1
 10
0.0
 20
0.0
 30
0.0
  0
VERTEX
  5
57C
330
57B
100
AcDbEntity
  8
LIVELLO_1
 62
     7
100
AcDbVertex
100
AcDb2dVertex
 10
72.22563771923424
 20
-146.329189116401
 30
0.0
  0
VERTEX
  5
57D
330
57B
100
AcDbEntity
  8
LIVELLO_1
 62
     7
100
AcDbVertex
100
AcDb2dVertex
 10
72.22563771923424
 20
-145.0863214458731
 30
0.0
  0
SEQEND
  5
57E
330
57B
100
AcDbEntity
  8
LIVELLO_1
 62
     7
  0
POLYLINE
  5
57F
330
1F
100
AcDbEntity
  8
LIVELLO_1
 62
     7
100
AcDb2dPolyline
 66
     1
 10
0.0
 20
0.0
 30
0.0
  0
VERTEX
  5
580
330
57F
100
AcDbEntity
  8
LIVELLO_1
 62
     7
100
AcDbVertex
100
AcDb2dVertex
 10
72.22563771923424
 20
-140.1147630711217
 30
0.0
  0
VERTEX
  5
581
330
57F
100
AcDbEntity
  8
LIVELLO_1
 62
     7
100
AcDbVertex
100
AcDb2dVertex
 10
72.10137725997838
 20
-139.9905026118562
 30
0.0
  0
SEQEND
  5
582
330
57F
100
AcDbEntity
  8
LIVELLO_1
 62
     7
  0
POLYLINE
  5
583
330
1F
100
AcDbEntity
  8
LIVELLO_1
 62
     7
100
AcDb2dPolyline
 66
     1
 10
0.0
 20
0.0
 30
0.0
  0
VERTEX
  5
584
330
583
100
AcDbEntity
  8
LIVELLO_1
 62
     7
100
AcDbVertex
100
AcDb2dVertex
 10
73.59285354166175
 20
-139.9905026118562
 30
0.0
  0
VERTEX
  5
585
330
583
100
AcDbEntity
  8
LIVELLO_1
 62
     7
100
AcDbVertex
100
AcDb2dVertex
 10
73.4685053897653
 20
-140.1147630711217
 30
0.0
  0
SEQEND
  5
586
330
583
100
AcDbEntity
  8
LIVELLO_1
 62
     7
  0
POLYLINE
  5
587
330
1F
100
AcDbEntity
  8
LIVELLO_1
 62
     7
100
AcDb2dPolyline
 66
     1
 10
0.0
 20
0.0
 30
0.0
  0
VERTEX
  5
588
330
587
100
AcDbEntity
  8
LIVELLO_1
 62
     7
100
AcDbVertex
100
AcDb2dVertex
 10
72.22563771923424
 20
-140.1147630711217
 30
0.0
  0
VERTEX
  5
589
330
587
100
AcDbEntity
  8
LIVELLO_1
 62
     7
100
AcDbVertex
100
AcDb2dVertex
 10
73.4685053897653
 20
-140.1147630711217
 30
0.0
  0
SEQEND
  5
58A
330
587
100
AcDbEntity
  8
LIVELLO_1
 62
     7
  0
POLYLINE
  5
58B
330
1F
100
AcDbEntity
  8
LIVELLO_1
 62
     7
100
AcDb2dPolyline
 66
     1
 10
0.0
 20
0.0
 30
0.0
  0
VERTEX
  5
58C
330
58B
100
AcDbEntity
  8
LIVELLO_1
 62
     7
100
AcDbVertex
100
AcDb2dVertex
 10
73.4685053897653
 20
-140.1147630711217
 30
0.0
  0
VERTEX
  5
58D
330
58B
100
AcDbEntity
  8
LIVELLO_1
 62
     7
100
AcDbVertex
100
AcDb2dVertex
 10
73.4685053897653
 20
-141.3576307416496
 30
0.0
  0
SEQEND
  5
58E
330
58B
100
AcDbEntity
  8
LIVELLO_1
 62
     7
  0
POLYLINE
  5
58F
330
1F
100
AcDbEntity
  8
LIVELLO_1
 62
     7
100
AcDb2dPolyline
 66
     1
 10
0.0
 20
0.0
 30
0.0
  0
VERTEX
  5
590
330
58F
100
AcDbEntity
  8
LIVELLO_1
 62
     7
100
AcDbVertex
100
AcDb2dVertex
 10
73.4685053897653
 20
-141.3576307416496
 30
0.0
  0
VERTEX
  5
591
330
58F
100
AcDbEntity
  8
LIVELLO_1
 62
     7
100
AcDbVertex
100
AcDb2dVertex
 10
73.59285354166175
 20
-141.481978893546
 30
0.0
  0
SEQEND
  5
592
330
58F
100
AcDbEntity
  8
LIVELLO_1
 62
     7
  0
POLYLINE
  5
593
330
1F
100
AcDbEntity
  8
LIVELLO_1
 62
     7
100
AcDb2dPolyline
 66
     1
 10
0.0
 20
0.0
 30
0.0
  0
VERTEX
  5
594
330
593
100
AcDbEntity
  8
LIVELLO_1
 62
     7
100
AcDbVertex
100
AcDb2dVertex
 10
72.10137725997838
 20
-141.481978893546
 30
0.0
  0
VERTEX
  5
595
330
593
100
AcDbEntity
  8
LIVELLO_1
 62
     7
100
AcDbVertex
100
AcDb2dVertex
 10
72.22563771923424
 20
-141.3576307416496
 30
0.0
  0
SEQEND
  5
596
330
593
100
AcDbEntity
  8
LIVELLO_1
 62
     7
  0
POLYLINE
  5
597
330
1F
100
AcDbEntity
  8
LIVELLO_1
 62
     7
100
AcDb2dPolyline
 66
     1
 10
0.0
 20
0.0
 30
0.0
  0
VERTEX
  5
598
330
597
100
AcDbEntity
  8
LIVELLO_1
 62
     7
100
AcDbVertex
100
AcDb2dVertex
 10
73.4685053897653
 20
-141.3576307416496
 30
0.0
  0
VERTEX
  5
599
330
597
100
AcDbEntity
  8
LIVELLO_1
 62
     7
100
AcDbVertex
100
AcDb2dVertex
 10
72.22563771923424
 20
-141.3576307416496
 30
0.0
  0
SEQEND
  5
59A
330
597
100
AcDbEntity
  8
LIVELLO_1
 62
     7
  0
POLYLINE
  5
59B
330
1F
100
AcDbEntity
  8
LIVELLO_1
 62
     7
100
AcDb2dPolyline
 66
     1
 10
0.0
 20
0.0
 30
0.0
  0
VERTEX
  5
59C
330
59B
100
AcDbEntity
  8
LIVELLO_1
 62
     7
100
AcDbVertex
100
AcDb2dVertex
 10
72.22563771923424
 20
-141.3576307416496
 30
0.0
  0
VERTEX
  5
59D
330
59B
100
AcDbEntity
  8
LIVELLO_1
 62
     7
100
AcDbVertex
100
AcDb2dVertex
 10
72.22563771923424
 20
-140.1147630711217
 30
0.0
  0
SEQEND
  5
59E
330
59B
100
AcDbEntity
  8
LIVELLO_1
 62
     7
  0
POLYLINE
  5
59F
330
1F
100
AcDbEntity
  8
LIVELLO_1
 62
     7
100
AcDb2dPolyline
 66
     1
 10
0.0
 20
0.0
 30
0.0
  0
VERTEX
  5
5A0
330
59F
100
AcDbEntity
  8
LIVELLO_1
 62
     7
100
AcDbVertex
100
AcDb2dVertex
 10
72.22563771923424
 20
-135.1432046963671
 30
0.0
  0
VERTEX
  5
5A1
330
59F
100
AcDbEntity
  8
LIVELLO_1
 62
     7
100
AcDbVertex
100
AcDb2dVertex
 10
72.10137725997838
 20
-135.0189442371048
 30
0.0
  0
SEQEND
  5
5A2
330
59F
100
AcDbEntity
  8
LIVELLO_1
 62
     7
  0
POLYLINE
  5
5A3
330
1F
100
AcDbEntity
  8
LIVELLO_1
 62
     7
100
AcDb2dPolyline
 66
     1
 10
0.0
 20
0.0
 30
0.0
  0
VERTEX
  5
5A4
330
5A3
100
AcDbEntity
  8
LIVELLO_1
 62
     7
100
AcDbVertex
100
AcDb2dVertex
 10
73.59285354166175
 20
-135.0189442371048
 30
0.0
  0
VERTEX
  5
5A5
330
5A3
100
AcDbEntity
  8
LIVELLO_1
 62
     7
100
AcDbVertex
100
AcDb2dVertex
 10
73.4685053897653
 20
-135.1432046963671
 30
0.0
  0
SEQEND
  5
5A6
330
5A3
100
AcDbEntity
  8
LIVELLO_1
 62
     7
  0
POLYLINE
  5
5A7
330
1F
100
AcDbEntity
  8
LIVELLO_1
 62
     7
100
AcDb2dPolyline
 66
     1
 10
0.0
 20
0.0
 30
0.0
  0
VERTEX
  5
5A8
330
5A7
100
AcDbEntity
  8
LIVELLO_1
 62
     7
100
AcDbVertex
100
AcDb2dVertex
 10
73.4685053897653
 20
-135.1432046963671
 30
0.0
  0
VERTEX
  5
5A9
330
5A7
100
AcDbEntity
  8
LIVELLO_1
 62
     7
100
AcDbVertex
100
AcDb2dVertex
 10
72.22563771923424
 20
-135.1432046963671
 30
0.0
  0
SEQEND
  5
5AA
330
5A7
100
AcDbEntity
  8
LIVELLO_1
 62
     7
  0
POLYLINE
  5
5AB
330
1F
100
AcDbEntity
  8
LIVELLO_1
 62
     7
100
AcDb2dPolyline
 66
     1
 10
0.0
 20
0.0
 30
0.0
  0
VERTEX
  5
5AC
330
5AB
100
AcDbEntity
  8
LIVELLO_1
 62
     7
100
AcDbVertex
100
AcDb2dVertex
 10
73.4685053897653
 20
-135.1432046963671
 30
0.0
  0
VERTEX
  5
5AD
330
5AB
100
AcDbEntity
  8
LIVELLO_1
 62
     7
100
AcDbVertex
100
AcDb2dVertex
 10
73.4685053897653
 20
-136.3860723668982
 30
0.0
  0
SEQEND
  5
5AE
330
5AB
100
AcDbEntity
  8
LIVELLO_1
 62
     7
  0
POLYLINE
  5
5AF
330
1F
100
AcDbEntity
  8
LIVELLO_1
 62
     7
100
AcDb2dPolyline
 66
     1
 10
0.0
 20
0.0
 30
0.0
  0
VERTEX
  5
5B0
330
5AF
100
AcDbEntity
  8
LIVELLO_1
 62
     7
100
AcDbVertex
100
AcDb2dVertex
 10
73.59285354166175
 20
-136.5104205187947
 30
0.0
  0
VERTEX
  5
5B1
330
5AF
100
AcDbEntity
  8
LIVELLO_1
 62
     7
100
AcDbVertex
100
AcDb2dVertex
 10
73.4685053897653
 20
-136.3860723668982
 30
0.0
  0
SEQEND
  5
5B2
330
5AF
100
AcDbEntity
  8
LIVELLO_1
 62
     7
  0
POLYLINE
  5
5B3
330
1F
100
AcDbEntity
  8
LIVELLO_1
 62
     7
100
AcDb2dPolyline
 66
     1
 10
0.0
 20
0.0
 30
0.0
  0
VERTEX
  5
5B4
330
5B3
100
AcDbEntity
  8
LIVELLO_1
 62
     7
100
AcDbVertex
100
AcDb2dVertex
 10
72.10137725997838
 20
-136.5104205187947
 30
0.0
  0
VERTEX
  5
5B5
330
5B3
100
AcDbEntity
  8
LIVELLO_1
 62
     7
100
AcDbVertex
100
AcDb2dVertex
 10
72.22563771923424
 20
-136.3860723668982
 30
0.0
  0
SEQEND
  5
5B6
330
5B3
100
AcDbEntity
  8
LIVELLO_1
 62
     7
  0
POLYLINE
  5
5B7
330
1F
100
AcDbEntity
  8
LIVELLO_1
 62
     7
100
AcDb2dPolyline
 66
     1
 10
0.0
 20
0.0
 30
0.0
  0
VERTEX
  5
5B8
330
5B7
100
AcDbEntity
  8
LIVELLO_1
 62
     7
100
AcDbVertex
100
AcDb2dVertex
 10
73.4685053897653
 20
-136.3860723668982
 30
0.0
  0
VERTEX
  5
5B9
330
5B7
100
AcDbEntity
  8
LIVELLO_1
 62
     7
100
AcDbVertex
100
AcDb2dVertex
 10
72.22563771923424
 20
-136.3860723668982
 30
0.0
  0
SEQEND
  5
5BA
330
5B7
100
AcDbEntity
  8
LIVELLO_1
 62
     7
  0
POLYLINE
  5
5BB
330
1F
100
AcDbEntity
  8
LIVELLO_1
 62
     7
100
AcDb2dPolyline
 66
     1
 10
0.0
 20
0.0
 30
0.0
  0
VERTEX
  5
5BC
330
5BB
100
AcDbEntity
  8
LIVELLO_1
 62
     7
100
AcDbVertex
100
AcDb2dVertex
 10
72.22563771923424
 20
-136.3860723668982
 30
0.0
  0
VERTEX
  5
5BD
330
5BB
100
AcDbEntity
  8
LIVELLO_1
 62
     7
100
AcDbVertex
100
AcDb2dVertex
 10
72.22563771923424
 20
-135.1432046963671
 30
0.0
  0
SEQEND
  5
5BE
330
5BB
100
AcDbEntity
  8
LIVELLO_1
 62
     7
  0
POLYLINE
  5
5BF
330
1F
100
AcDbEntity
  8
LIVELLO_1
 62
     7
100
AcDb2dPolyline
 66
     1
 10
0.0
 20
0.0
 30
0.0
  0
VERTEX
  5
5C0
330
5BF
100
AcDbEntity
  8
LIVELLO_1
 62
     7
100
AcDbVertex
100
AcDb2dVertex
 10
72.22563771923424
 20
-130.1716463216161
 30
0.0
  0
VERTEX
  5
5C1
330
5BF
100
AcDbEntity
  8
LIVELLO_1
 62
     7
100
AcDbVertex
100
AcDb2dVertex
 10
72.10137725997838
 20
-130.0473858623538
 30
0.0
  0
SEQEND
  5
5C2
330
5BF
100
AcDbEntity
  8
LIVELLO_1
 62
     7
  0
POLYLINE
  5
5C3
330
1F
100
AcDbEntity
  8
LIVELLO_1
 62
     7
100
AcDb2dPolyline
 66
     1
 10
0.0
 20
0.0
 30
0.0
  0
VERTEX
  5
5C4
330
5C3
100
AcDbEntity
  8
LIVELLO_1
 62
     7
100
AcDbVertex
100
AcDb2dVertex
 10
73.59285354166175
 20
-130.0473858623538
 30
0.0
  0
VERTEX
  5
5C5
330
5C3
100
AcDbEntity
  8
LIVELLO_1
 62
     7
100
AcDbVertex
100
AcDb2dVertex
 10
73.4685053897653
 20
-130.1716463216161
 30
0.0
  0
SEQEND
  5
5C6
330
5C3
100
AcDbEntity
  8
LIVELLO_1
 62
     7
  0
POLYLINE
  5
5C7
330
1F
100
AcDbEntity
  8
LIVELLO_1
 62
     7
100
AcDb2dPolyline
 66
     1
 10
0.0
 20
0.0
 30
0.0
  0
VERTEX
  5
5C8
330
5C7
100
AcDbEntity
  8
LIVELLO_1
 62
     7
100
AcDbVertex
100
AcDb2dVertex
 10
73.4685053897653
 20
-130.1716463216161
 30
0.0
  0
VERTEX
  5
5C9
330
5C7
100
AcDbEntity
  8
LIVELLO_1
 62
     7
100
AcDbVertex
100
AcDb2dVertex
 10
72.22563771923424
 20
-130.1716463216161
 30
0.0
  0
SEQEND
  5
5CA
330
5C7
100
AcDbEntity
  8
LIVELLO_1
 62
     7
  0
POLYLINE
  5
5CB
330
1F
100
AcDbEntity
  8
LIVELLO_1
 62
     7
100
AcDb2dPolyline
 66
     1
 10
0.0
 20
0.0
 30
0.0
  0
VERTEX
  5
5CC
330
5CB
100
AcDbEntity
  8
LIVELLO_1
 62
     7
100
AcDbVertex
100
AcDb2dVertex
 10
73.4685053897653
 20
-130.1716463216161
 30
0.0
  0
VERTEX
  5
5CD
330
5CB
100
AcDbEntity
  8
LIVELLO_1
 62
     7
100
AcDbVertex
100
AcDb2dVertex
 10
73.4685053897653
 20
-131.4145139921468
 30
0.0
  0
SEQEND
  5
5CE
330
5CB
100
AcDbEntity
  8
LIVELLO_1
 62
     7
  0
POLYLINE
  5
5CF
330
1F
100
AcDbEntity
  8
LIVELLO_1
 62
     7
100
AcDb2dPolyline
 66
     1
 10
0.0
 20
0.0
 30
0.0
  0
VERTEX
  5
5D0
330
5CF
100
AcDbEntity
  8
LIVELLO_1
 62
     7
100
AcDbVertex
100
AcDb2dVertex
 10
73.4685053897653
 20
-131.4145139921468
 30
0.0
  0
VERTEX
  5
5D1
330
5CF
100
AcDbEntity
  8
LIVELLO_1
 62
     7
100
AcDbVertex
100
AcDb2dVertex
 10
73.59285354166175
 20
-131.5388621440433
 30
0.0
  0
SEQEND
  5
5D2
330
5CF
100
AcDbEntity
  8
LIVELLO_1
 62
     7
  0
POLYLINE
  5
5D3
330
1F
100
AcDbEntity
  8
LIVELLO_1
 62
     7
100
AcDb2dPolyline
 66
     1
 10
0.0
 20
0.0
 30
0.0
  0
VERTEX
  5
5D4
330
5D3
100
AcDbEntity
  8
LIVELLO_1
 62
     7
100
AcDbVertex
100
AcDb2dVertex
 10
72.10137725997838
 20
-131.5388621440433
 30
0.0
  0
VERTEX
  5
5D5
330
5D3
100
AcDbEntity
  8
LIVELLO_1
 62
     7
100
AcDbVertex
100
AcDb2dVertex
 10
72.22563771923424
 20
-131.4145139921468
 30
0.0
  0
SEQEND
  5
5D6
330
5D3
100
AcDbEntity
  8
LIVELLO_1
 62
     7
  0
POLYLINE
  5
5D7
330
1F
100
AcDbEntity
  8
LIVELLO_1
 62
     7
100
AcDb2dPolyline
 66
     1
 10
0.0
 20
0.0
 30
0.0
  0
VERTEX
  5
5D8
330
5D7
100
AcDbEntity
  8
LIVELLO_1
 62
     7
100
AcDbVertex
100
AcDb2dVertex
 10
73.4685053897653
 20
-131.4145139921468
 30
0.0
  0
VERTEX
  5
5D9
330
5D7
100
AcDbEntity
  8
LIVELLO_1
 62
     7
100
AcDbVertex
100
AcDb2dVertex
 10
72.22563771923424
 20
-131.4145139921468
 30
0.0
  0
SEQEND
  5
5DA
330
5D7
100
AcDbEntity
  8
LIVELLO_1
 62
     7
  0
POLYLINE
  5
5DB
330
1F
100
AcDbEntity
  8
LIVELLO_1
 62
     7
100
AcDb2dPolyline
 66
     1
 10
0.0
 20
0.0
 30
0.0
  0
VERTEX
  5
5DC
330
5DB
100
AcDbEntity
  8
LIVELLO_1
 62
     7
100
AcDbVertex
100
AcDb2dVertex
 10
72.22563771923424
 20
-131.4145139921468
 30
0.0
  0
VERTEX
  5
5DD
330
5DB
100
AcDbEntity
  8
LIVELLO_1
 62
     7
100
AcDbVertex
100
AcDb2dVertex
 10
72.22563771923424
 20
-130.1716463216161
 30
0.0
  0
SEQEND
  5
5DE
330
5DB
100
AcDbEntity
  8
LIVELLO_1
 62
     7
  0
POLYLINE
  5
5DF
330
1F
100
AcDbEntity
  8
LIVELLO_1
 62
     7
100
AcDb2dPolyline
 66
     1
 10
0.0
 20
0.0
 30
0.0
  0
VERTEX
  5
5E0
330
5DF
100
AcDbEntity
  8
LIVELLO_1
 62
     7
100
AcDbVertex
100
AcDb2dVertex
 10
72.22563771923424
 20
-125.2000879468644
 30
0.0
  0
VERTEX
  5
5E1
330
5DF
100
AcDbEntity
  8
LIVELLO_1
 62
     7
100
AcDbVertex
100
AcDb2dVertex
 10
72.10137725997838
 20
-125.0758274876021
 30
0.0
  0
SEQEND
  5
5E2
330
5DF
100
AcDbEntity
  8
LIVELLO_1
 62
     7
  0
POLYLINE
  5
5E3
330
1F
100
AcDbEntity
  8
LIVELLO_1
 62
     7
100
AcDb2dPolyline
 66
     1
 10
0.0
 20
0.0
 30
0.0
  0
VERTEX
  5
5E4
330
5E3
100
AcDbEntity
  8
LIVELLO_1
 62
     7
100
AcDbVertex
100
AcDb2dVertex
 10
73.59285354166175
 20
-125.0758274876021
 30
0.0
  0
VERTEX
  5
5E5
330
5E3
100
AcDbEntity
  8
LIVELLO_1
 62
     7
100
AcDbVertex
100
AcDb2dVertex
 10
73.4685053897653
 20
-125.2000879468644
 30
0.0
  0
SEQEND
  5
5E6
330
5E3
100
AcDbEntity
  8
LIVELLO_1
 62
     7
  0
POLYLINE
  5
5E7
330
1F
100
AcDbEntity
  8
LIVELLO_1
 62
     7
100
AcDb2dPolyline
 66
     1
 10
0.0
 20
0.0
 30
0.0
  0
VERTEX
  5
5E8
330
5E7
100
AcDbEntity
  8
LIVELLO_1
 62
     7
100
AcDbVertex
100
AcDb2dVertex
 10
72.22563771923424
 20
-125.2000879468644
 30
0.0
  0
VERTEX
  5
5E9
330
5E7
100
AcDbEntity
  8
LIVELLO_1
 62
     7
100
AcDbVertex
100
AcDb2dVertex
 10
73.4685053897653
 20
-125.2000879468644
 30
0.0
  0
SEQEND
  5
5EA
330
5E7
100
AcDbEntity
  8
LIVELLO_1
 62
     7
  0
POLYLINE
  5
5EB
330
1F
100
AcDbEntity
  8
LIVELLO_1
 62
     7
100
AcDb2dPolyline
 66
     1
 10
0.0
 20
0.0
 30
0.0
  0
VERTEX
  5
5EC
330
5EB
100
AcDbEntity
  8
LIVELLO_1
 62
     7
100
AcDbVertex
100
AcDb2dVertex
 10
73.4685053897653
 20
-125.2000879468644
 30
0.0
  0
VERTEX
  5
5ED
330
5EB
100
AcDbEntity
  8
LIVELLO_1
 62
     7
100
AcDbVertex
100
AcDb2dVertex
 10
73.4685053897653
 20
-126.4430433100264
 30
0.0
  0
SEQEND
  5
5EE
330
5EB
100
AcDbEntity
  8
LIVELLO_1
 62
     7
  0
POLYLINE
  5
5EF
330
1F
100
AcDbEntity
  8
LIVELLO_1
 62
     7
100
AcDb2dPolyline
 66
     1
 10
0.0
 20
0.0
 30
0.0
  0
VERTEX
  5
5F0
330
5EF
100
AcDbEntity
  8
LIVELLO_1
 62
     7
100
AcDbVertex
100
AcDb2dVertex
 10
73.4685053897653
 20
-126.4430433100264
 30
0.0
  0
VERTEX
  5
5F1
330
5EF
100
AcDbEntity
  8
LIVELLO_1
 62
     7
100
AcDbVertex
100
AcDb2dVertex
 10
73.59285354166175
 20
-126.5673037692919
 30
0.0
  0
SEQEND
  5
5F2
330
5EF
100
AcDbEntity
  8
LIVELLO_1
 62
     7
  0
POLYLINE
  5
5F3
330
1F
100
AcDbEntity
  8
LIVELLO_1
 62
     7
100
AcDb2dPolyline
 66
     1
 10
0.0
 20
0.0
 30
0.0
  0
VERTEX
  5
5F4
330
5F3
100
AcDbEntity
  8
LIVELLO_1
 62
     7
100
AcDbVertex
100
AcDb2dVertex
 10
72.10137725997838
 20
-126.5673037692919
 30
0.0
  0
VERTEX
  5
5F5
330
5F3
100
AcDbEntity
  8
LIVELLO_1
 62
     7
100
AcDbVertex
100
AcDb2dVertex
 10
72.22563771923424
 20
-126.4430433100264
 30
0.0
  0
SEQEND
  5
5F6
330
5F3
100
AcDbEntity
  8
LIVELLO_1
 62
     7
  0
POLYLINE
  5
5F7
330
1F
100
AcDbEntity
  8
LIVELLO_1
 62
     7
100
AcDb2dPolyline
 66
     1
 10
0.0
 20
0.0
 30
0.0
  0
VERTEX
  5
5F8
330
5F7
100
AcDbEntity
  8
LIVELLO_1
 62
     7
100
AcDbVertex
100
AcDb2dVertex
 10
73.4685053897653
 20
-126.4430433100264
 30
0.0
  0
VERTEX
  5
5F9
330
5F7
100
AcDbEntity
  8
LIVELLO_1
 62
     7
100
AcDbVertex
100
AcDb2dVertex
 10
72.22563771923424
 20
-126.4430433100264
 30
0.0
  0
SEQEND
  5
5FA
330
5F7
100
AcDbEntity
  8
LIVELLO_1
 62
     7
  0
POLYLINE
  5
5FB
330
1F
100
AcDbEntity
  8
LIVELLO_1
 62
     7
100
AcDb2dPolyline
 66
     1
 10
0.0
 20
0.0
 30
0.0
  0
VERTEX
  5
5FC
330
5FB
100
AcDbEntity
  8
LIVELLO_1
 62
     7
100
AcDbVertex
100
AcDb2dVertex
 10
72.22563771923424
 20
-126.4430433100264
 30
0.0
  0
VERTEX
  5
5FD
330
5FB
100
AcDbEntity
  8
LIVELLO_1
 62
     7
100
AcDbVertex
100
AcDb2dVertex
 10
72.22563771923424
 20
-125.2000879468644
 30
0.0
  0
SEQEND
  5
5FE
330
5FB
100
AcDbEntity
  8
LIVELLO_1
 62
     7
  0
SPLINE
  5
5FF
330
1F
100
AcDbEntity
  8
LIVELLO_1
 62
     7
100
AcDbSpline
210
0.0
220
0.0
230
1.0
 70
     8
 71
     3
 72
    11
 73
     7
 74
     0
 42
0.0000000001
 43
0.0000000001
 12
1.0
 22
0.0
 32
0.0
 13
1.0
 23
0.0
 33
0.0
 40
0.0
 40
0.0
 40
0.0
 40
0.0
 40
1.0
 40
1.0
 40
1.0
 40
2.0
 40
2.0
 40
2.0
 40
2.0
 10
85.77309702106727
 20
-116.599370004986
 30
0.0
 10
85.77309702106727
 20
-115.2951174921974
 30
0.0
 10
86.83040708270308
 20
-114.2378951231893
 30
0.0
 10
88.1346595954949
 20
-114.2378951231893
 30
0.0
 10
89.4388244156583
 20
-114.2378951231893
 30
0.0
 10
90.4961344772877
 20
-115.2951174921974
 30
0.0
 10
90.4961344772877
 20
-116.599370004986
 30
0.0
  0
SPLINE
  5
600
330
1F
100
AcDbEntity
  8
LIVELLO_1
 62
     7
100
AcDbSpline
210
0.0
220
0.0
230
1.0
 70
     8
 71
     3
 72
    11
 73
     7
 74
     0
 42
0.0000000001
 43
0.0000000001
 12
1.0
 22
0.0
 32
0.0
 13
1.0
 23
0.0
 33
0.0
 40
0.0
 40
0.0
 40
0.0
 40
0.0
 40
1.0
 40
1.0
 40
1.0
 40
2.0
 40
2.0
 40
2.0
 40
2.0
 10
90.4961344772877
 20
-116.599370004986
 30
0.0
 10
90.4961344772877
 20
-117.9035348251468
 30
0.0
 10
89.4388244156583
 20
-118.960844886782
 30
0.0
 10
88.1346595954949
 20
-118.960844886782
 30
0.0
 10
86.83040708270308
 20
-118.960844886782
 30
0.0
 10
85.77309702106727
 20
-117.9035348251468
 30
0.0
 10
85.77309702106727
 20
-116.599370004986
 30
0.0
  0
POLYLINE
  5
601
330
1F
100
AcDbEntity
  8
LIVELLO_1
 62
     7
100
AcDb2dPolyline
 66
     1
 10
0.0
 20
0.0
 30
0.0
  0
VERTEX
  5
602
330
601
100
AcDbEntity
  8
LIVELLO_1
 62
     7
100
AcDbVertex
100
AcDb2dVertex
 10
65.3810524218288
 20
-119.7314000424271
 30
0.0
  0
VERTEX
  5
603
330
601
100
AcDbEntity
  8
LIVELLO_1
 62
     7
100
AcDbVertex
100
AcDb2dVertex
 10
77.43703544197203
 20
-119.7314000424271
 30
0.0
  0
SEQEND
  5
604
330
601
100
AcDbEntity
  8
LIVELLO_1
 62
     7
  0
POLYLINE
  5
605
330
1F
100
AcDbEntity
  8
LIVELLO_1
 62
     7
100
AcDb2dPolyline
 66
     1
 10
0.0
 20
0.0
 30
0.0
  0
VERTEX
  5
606
330
605
100
AcDbEntity
  8
LIVELLO_1
 62
     7
100
AcDbVertex
100
AcDb2dVertex
 10
77.43703544197203
 20
-119.7314000424271
 30
0.0
  0
VERTEX
  5
607
330
605
100
AcDbEntity
  8
LIVELLO_1
 62
     7
100
AcDbVertex
100
AcDb2dVertex
 10
77.43703544197203
 20
-187.3445237849418
 30
0.0
  0
SEQEND
  5
608
330
605
100
AcDbEntity
  8
LIVELLO_1
 62
     7
  0
POLYLINE
  5
609
330
1F
100
AcDbEntity
  8
LIVELLO_1
 62
     7
100
AcDb2dPolyline
 66
     1
 10
0.0
 20
0.0
 30
0.0
  0
VERTEX
  5
60A
330
609
100
AcDbEntity
  8
LIVELLO_1
 62
     7
100
AcDbVertex
100
AcDb2dVertex
 10
77.43703544197203
 20
-187.3445237849418
 30
0.0
  0
VERTEX
  5
60B
330
609
100
AcDbEntity
  8
LIVELLO_1
 62
     7
100
AcDbVertex
100
AcDb2dVertex
 10
120.9381054515692
 20
-187.3445237849418
 30
0.0
  0
SEQEND
  5
60C
330
609
100
AcDbEntity
  8
LIVELLO_1
 62
     7
  0
POLYLINE
  5
60D
330
1F
100
AcDbEntity
  8
LIVELLO_1
 62
     7
100
AcDb2dPolyline
 66
     1
 10
0.0
 20
0.0
 30
0.0
  0
VERTEX
  5
60E
330
60D
100
AcDbEntity
  8
LIVELLO_1
 62
     7
100
AcDbVertex
100
AcDb2dVertex
 10
120.9381054515692
 20
-187.3445237849418
 30
0.0
  0
VERTEX
  5
60F
330
60D
100
AcDbEntity
  8
LIVELLO_1
 62
     7
100
AcDbVertex
100
AcDb2dVertex
 10
120.9381054515692
 20
-152.3448159653865
 30
0.0
  0
SEQEND
  5
610
330
60D
100
AcDbEntity
  8
LIVELLO_1
 62
     7
  0
POLYLINE
  5
611
330
1F
100
AcDbEntity
  8
LIVELLO_1
 62
     7
100
AcDb2dPolyline
 66
     1
 10
0.0
 20
0.0
 30
0.0
  0
VERTEX
  5
612
330
611
100
AcDbEntity
  8
LIVELLO_1
 62
     7
100
AcDbVertex
100
AcDb2dVertex
 10
120.9381054515692
 20
-152.3448159653865
 30
0.0
  0
VERTEX
  5
613
330
611
100
AcDbEntity
  8
LIVELLO_1
 62
     7
100
AcDbVertex
100
AcDb2dVertex
 10
144.7519165437255
 20
-152.3448159653865
 30
0.0
  0
SEQEND
  5
614
330
611
100
AcDbEntity
  8
LIVELLO_1
 62
     7
  0
POLYLINE
  5
615
330
1F
100
AcDbEntity
  8
LIVELLO_1
 62
     7
100
AcDb2dPolyline
 66
     1
 10
0.0
 20
0.0
 30
0.0
  0
VERTEX
  5
616
330
615
100
AcDbEntity
  8
LIVELLO_1
 62
     7
100
AcDbVertex
100
AcDb2dVertex
 10
144.7519165437255
 20
-152.3448159653865
 30
0.0
  0
VERTEX
  5
617
330
615
100
AcDbEntity
  8
LIVELLO_1
 62
     7
100
AcDbVertex
100
AcDb2dVertex
 10
144.7519165437255
 20
-106.9296788814419
 30
0.0
  0
SEQEND
  5
618
330
615
100
AcDbEntity
  8
LIVELLO_1
 62
     7
  0
POLYLINE
  5
619
330
1F
100
AcDbEntity
  8
LIVELLO_1
 62
     7
100
AcDb2dPolyline
 66
     1
 10
0.0
 20
0.0
 30
0.0
  0
VERTEX
  5
61A
330
619
100
AcDbEntity
  8
LIVELLO_1
 62
     7
100
AcDbVertex
100
AcDb2dVertex
 10
144.7519165437255
 20
-106.9296788814419
 30
0.0
  0
VERTEX
  5
61B
330
619
100
AcDbEntity
  8
LIVELLO_1
 62
     7
100
AcDbVertex
100
AcDb2dVertex
 10
101.9964969823361
 20
-106.9296788814419
 30
0.0
  0
SEQEND
  5
61C
330
619
100
AcDbEntity
  8
LIVELLO_1
 62
     7
  0
POLYLINE
  5
61D
330
1F
100
AcDbEntity
  8
LIVELLO_1
 62
     7
100
AcDb2dPolyline
 66
     1
 10
0.0
 20
0.0
 30
0.0
  0
VERTEX
  5
61E
330
61D
100
AcDbEntity
  8
LIVELLO_1
 62
     7
100
AcDbVertex
100
AcDb2dVertex
 10
101.9964969823361
 20
-106.9296788814419
 30
0.0
  0
VERTEX
  5
61F
330
61D
100
AcDbEntity
  8
LIVELLO_1
 62
     7
100
AcDbVertex
100
AcDb2dVertex
 10
101.9964969823361
 20
-110.6583695856654
 30
0.0
  0
SEQEND
  5
620
330
61D
100
AcDbEntity
  8
LIVELLO_1
 62
     7
  0
POLYLINE
  5
621
330
1F
100
AcDbEntity
  8
LIVELLO_1
 62
     7
100
AcDb2dPolyline
 66
     1
 10
0.0
 20
0.0
 30
0.0
  0
VERTEX
  5
622
330
621
100
AcDbEntity
  8
LIVELLO_1
 62
     7
100
AcDbVertex
100
AcDb2dVertex
 10
101.9964969823361
 20
-110.6583695856654
 30
0.0
  0
VERTEX
  5
623
330
621
100
AcDbEntity
  8
LIVELLO_1
 62
     7
100
AcDbVertex
100
AcDb2dVertex
 10
65.3810524218288
 20
-110.6583695856654
 30
0.0
  0
SEQEND
  5
624
330
621
100
AcDbEntity
  8
LIVELLO_1
 62
     7
  0
POLYLINE
  5
625
330
1F
100
AcDbEntity
  8
LIVELLO_1
 62
     7
100
AcDb2dPolyline
 66
     1
 10
0.0
 20
0.0
 30
0.0
  0
VERTEX
  5
626
330
625
100
AcDbEntity
  8
LIVELLO_1
 62
     7
100
AcDbVertex
100
AcDb2dVertex
 10
65.3810524218288
 20
-110.6583695856654
 30
0.0
  0
VERTEX
  5
627
330
625
100
AcDbEntity
  8
LIVELLO_1
 62
     7
100
AcDbVertex
100
AcDb2dVertex
 10
65.3810524218288
 20
-119.7314000424271
 30
0.0
  0
SEQEND
  5
628
330
625
100
AcDbEntity
  8
LIVELLO_1
 62
     7
  0
POLYLINE
  5
629
330
1F
100
AcDbEntity
  8
LIVELLO_1
 62
     7
100
AcDb2dPolyline
 66
     1
 10
0.0
 20
0.0
 30
0.0
  0
VERTEX
  5
62A
330
629
100
AcDbEntity
  8
LIVELLO_1
 62
     7
100
AcDbVertex
100
AcDb2dVertex
 10
92.70598879870705
 20
-166.5633869783991
 30
0.0
  0
VERTEX
  5
62B
330
629
100
AcDbEntity
  8
LIVELLO_1
 62
     7
100
AcDbVertex
100
AcDb2dVertex
 10
91.16996466006005
 20
-166.5633869783991
 30
0.0
  0
SEQEND
  5
62C
330
629
100
AcDbEntity
  8
LIVELLO_1
 62
     7
  0
POLYLINE
  5
62D
330
1F
100
AcDbEntity
  8
LIVELLO_1
 62
     7
100
AcDb2dPolyline
 66
     1
 10
0.0
 20
0.0
 30
0.0
  0
VERTEX
  5
62E
330
62D
100
AcDbEntity
  8
LIVELLO_1
 62
     7
100
AcDbVertex
100
AcDb2dVertex
 10
84.49988769992974
 20
-166.5633869783991
 30
0.0
  0
VERTEX
  5
62F
330
62D
100
AcDbEntity
  8
LIVELLO_1
 62
     7
100
AcDbVertex
100
AcDb2dVertex
 10
82.96377586865496
 20
-166.5633869783991
 30
0.0
  0
SEQEND
  5
630
330
62D
100
AcDbEntity
  8
LIVELLO_1
 62
     7
  0
POLYLINE
  5
631
330
1F
100
AcDbEntity
  8
LIVELLO_1
 62
     7
100
AcDb2dPolyline
 66
     1
 10
0.0
 20
0.0
 30
0.0
  0
VERTEX
  5
632
330
631
100
AcDbEntity
  8
LIVELLO_1
 62
     7
100
AcDbVertex
100
AcDb2dVertex
 10
92.70598879870705
 20
-175.0150274462121
 30
0.0
  0
VERTEX
  5
633
330
631
100
AcDbEntity
  8
LIVELLO_1
 62
     7
100
AcDbVertex
100
AcDb2dVertex
 10
91.16996466006005
 20
-175.0150274462121
 30
0.0
  0
SEQEND
  5
634
330
631
100
AcDbEntity
  8
LIVELLO_1
 62
     7
  0
POLYLINE
  5
635
330
1F
100
AcDbEntity
  8
LIVELLO_1
 62
     7
100
AcDb2dPolyline
 66
     1
 10
0.0
 20
0.0
 30
0.0
  0
VERTEX
  5
636
330
635
100
AcDbEntity
  8
LIVELLO_1
 62
     7
100
AcDbVertex
100
AcDb2dVertex
 10
88.6566061399842
 20
-170.6390774266566
 30
0.0
  0
VERTEX
  5
637
330
635
100
AcDbEntity
  8
LIVELLO_1
 62
     7
100
AcDbVertex
100
AcDb2dVertex
 10
88.6566061399842
 20
-173.0264216348397
 30
0.0
  0
SEQEND
  5
638
330
635
100
AcDbEntity
  8
LIVELLO_1
 62
     7
  0
POLYLINE
  5
639
330
1F
100
AcDbEntity
  8
LIVELLO_1
 62
     7
100
AcDb2dPolyline
 66
     1
 10
0.0
 20
0.0
 30
0.0
  0
VERTEX
  5
63A
330
639
100
AcDbEntity
  8
LIVELLO_1
 62
     7
100
AcDbVertex
100
AcDb2dVertex
 10
88.6566061399842
 20
-173.0264216348397
 30
0.0
  0
VERTEX
  5
63B
330
639
100
AcDbEntity
  8
LIVELLO_1
 62
     7
100
AcDbVertex
100
AcDb2dVertex
 10
87.16512985828831
 20
-173.0264216348397
 30
0.0
  0
SEQEND
  5
63C
330
639
100
AcDbEntity
  8
LIVELLO_1
 62
     7
  0
POLYLINE
  5
63D
330
1F
100
AcDbEntity
  8
LIVELLO_1
 62
     7
100
AcDb2dPolyline
 66
     1
 10
0.0
 20
0.0
 30
0.0
  0
VERTEX
  5
63E
330
63D
100
AcDbEntity
  8
LIVELLO_1
 62
     7
100
AcDbVertex
100
AcDb2dVertex
 10
87.16512985828831
 20
-173.0264216348397
 30
0.0
  0
VERTEX
  5
63F
330
63D
100
AcDbEntity
  8
LIVELLO_1
 62
     7
100
AcDbVertex
100
AcDb2dVertex
 10
87.16512985828831
 20
-170.605754226574
 30
0.0
  0
SEQEND
  5
640
330
63D
100
AcDbEntity
  8
LIVELLO_1
 62
     7
  0
POLYLINE
  5
641
330
1F
100
AcDbEntity
  8
LIVELLO_1
 62
     7
100
AcDb2dPolyline
 66
     1
 10
0.0
 20
0.0
 30
0.0
  0
VERTEX
  5
642
330
641
100
AcDbEntity
  8
LIVELLO_1
 62
     7
100
AcDbVertex
100
AcDb2dVertex
 10
84.49988769992974
 20
-175.0150274462121
 30
0.0
  0
VERTEX
  5
643
330
641
100
AcDbEntity
  8
LIVELLO_1
 62
     7
100
AcDbVertex
100
AcDb2dVertex
 10
82.96377586865496
 20
-175.0150274462121
 30
0.0
  0
SEQEND
  5
644
330
641
100
AcDbEntity
  8
LIVELLO_1
 62
     7
  0
POLYLINE
  5
645
330
1F
100
AcDbEntity
  8
LIVELLO_1
 62
     7
100
AcDb2dPolyline
 66
     1
 10
0.0
 20
0.0
 30
0.0
  0
VERTEX
  5
646
330
645
100
AcDbEntity
  8
LIVELLO_1
 62
     7
100
AcDbVertex
100
AcDb2dVertex
 10
113.2657894025821
 20
-179.5142733060808
 30
0.0
  0
VERTEX
  5
647
330
645
100
AcDbEntity
  8
LIVELLO_1
 62
     7
100
AcDbVertex
100
AcDb2dVertex
 10
113.2657894025821
 20
-171.5598500605782
 30
0.0
  0
SEQEND
  5
648
330
645
100
AcDbEntity
  8
LIVELLO_1
 62
     7
  0
POLYLINE
  5
649
330
1F
100
AcDbEntity
  8
LIVELLO_1
 62
     7
100
AcDb2dPolyline
 66
     1
 10
0.0
 20
0.0
 30
0.0
  0
VERTEX
  5
64A
330
649
100
AcDbEntity
  8
LIVELLO_1
 62
     7
100
AcDbVertex
100
AcDb2dVertex
 10
113.2657894025821
 20
-171.5598500605782
 30
0.0
  0
VERTEX
  5
64B
330
649
100
AcDbEntity
  8
LIVELLO_1
 62
     7
100
AcDbVertex
100
AcDb2dVertex
 10
114.5086570731131
 20
-171.5598500605782
 30
0.0
  0
SEQEND
  5
64C
330
649
100
AcDbEntity
  8
LIVELLO_1
 62
     7
  0
POLYLINE
  5
64D
330
1F
100
AcDbEntity
  8
LIVELLO_1
 62
     7
100
AcDb2dPolyline
 66
     1
 10
0.0
 20
0.0
 30
0.0
  0
VERTEX
  5
64E
330
64D
100
AcDbEntity
  8
LIVELLO_1
 62
     7
100
AcDbVertex
100
AcDb2dVertex
 10
114.5086570731131
 20
-171.5598500605782
 30
0.0
  0
VERTEX
  5
64F
330
64D
100
AcDbEntity
  8
LIVELLO_1
 62
     7
100
AcDbVertex
100
AcDb2dVertex
 10
114.5086570731131
 20
-179.5142733060808
 30
0.0
  0
SEQEND
  5
650
330
64D
100
AcDbEntity
  8
LIVELLO_1
 62
     7
  0
POLYLINE
  5
651
330
1F
100
AcDbEntity
  8
LIVELLO_1
 62
     7
100
AcDb2dPolyline
 66
     1
 10
0.0
 20
0.0
 30
0.0
  0
VERTEX
  5
652
330
651
100
AcDbEntity
  8
LIVELLO_1
 62
     7
100
AcDbVertex
100
AcDb2dVertex
 10
114.5086570731131
 20
-179.5142733060808
 30
0.0
  0
VERTEX
  5
653
330
651
100
AcDbEntity
  8
LIVELLO_1
 62
     7
100
AcDbVertex
100
AcDb2dVertex
 10
113.2657894025821
 20
-179.5142733060808
 30
0.0
  0
SEQEND
  5
654
330
651
100
AcDbEntity
  8
LIVELLO_1
 62
     7
  0
POLYLINE
  5
655
330
1F
100
AcDbEntity
  8
LIVELLO_1
 62
     7
100
AcDb2dPolyline
 66
     1
 10
0.0
 20
0.0
 30
0.0
  0
VERTEX
  5
656
330
655
100
AcDbEntity
  8
LIVELLO_1
 62
     7
100
AcDbVertex
100
AcDb2dVertex
 10
113.2657894025821
 20
-164.0279299151094
 30
0.0
  0
VERTEX
  5
657
330
655
100
AcDbEntity
  8
LIVELLO_1
 62
     7
100
AcDbVertex
100
AcDb2dVertex
 10
113.2657894025821
 20
-160.6721082813094
 30
0.0
  0
SEQEND
  5
658
330
655
100
AcDbEntity
  8
LIVELLO_1
 62
     7
  0
POLYLINE
  5
659
330
1F
100
AcDbEntity
  8
LIVELLO_1
 62
     7
100
AcDb2dPolyline
 66
     1
 10
0.0
 20
0.0
 30
0.0
  0
VERTEX
  5
65A
330
659
100
AcDbEntity
  8
LIVELLO_1
 62
     7
100
AcDbVertex
100
AcDb2dVertex
 10
113.2657894025821
 20
-160.6721082813094
 30
0.0
  0
VERTEX
  5
65B
330
659
100
AcDbEntity
  8
LIVELLO_1
 62
     7
100
AcDbVertex
100
AcDb2dVertex
 10
109.9099677687763
 20
-160.6721082813094
 30
0.0
  0
SEQEND
  5
65C
330
659
100
AcDbEntity
  8
LIVELLO_1
 62
     7
  0
POLYLINE
  5
65D
330
1F
100
AcDbEntity
  8
LIVELLO_1
 62
     7
100
AcDb2dPolyline
 66
     1
 10
0.0
 20
0.0
 30
0.0
  0
VERTEX
  5
65E
330
65D
100
AcDbEntity
  8
LIVELLO_1
 62
     7
100
AcDbVertex
100
AcDb2dVertex
 10
109.9099677687763
 20
-160.6721082813094
 30
0.0
  0
VERTEX
  5
65F
330
65D
100
AcDbEntity
  8
LIVELLO_1
 62
     7
100
AcDbVertex
100
AcDb2dVertex
 10
109.9099677687763
 20
-159.429240610779
 30
0.0
  0
SEQEND
  5
660
330
65D
100
AcDbEntity
  8
LIVELLO_1
 62
     7
  0
POLYLINE
  5
661
330
1F
100
AcDbEntity
  8
LIVELLO_1
 62
     7
100
AcDb2dPolyline
 66
     1
 10
0.0
 20
0.0
 30
0.0
  0
VERTEX
  5
662
330
661
100
AcDbEntity
  8
LIVELLO_1
 62
     7
100
AcDbVertex
100
AcDb2dVertex
 10
109.9099677687763
 20
-159.429240610779
 30
0.0
  0
VERTEX
  5
663
330
661
100
AcDbEntity
  8
LIVELLO_1
 62
     7
100
AcDbVertex
100
AcDb2dVertex
 10
113.2657894025821
 20
-159.429240610779
 30
0.0
  0
SEQEND
  5
664
330
661
100
AcDbEntity
  8
LIVELLO_1
 62
     7
  0
POLYLINE
  5
665
330
1F
100
AcDbEntity
  8
LIVELLO_1
 62
     7
100
AcDb2dPolyline
 66
     1
 10
0.0
 20
0.0
 30
0.0
  0
VERTEX
  5
666
330
665
100
AcDbEntity
  8
LIVELLO_1
 62
     7
100
AcDbVertex
100
AcDb2dVertex
 10
113.2657894025821
 20
-159.429240610779
 30
0.0
  0
VERTEX
  5
667
330
665
100
AcDbEntity
  8
LIVELLO_1
 62
     7
100
AcDbVertex
100
AcDb2dVertex
 10
113.2657894025821
 20
-156.073418976979
 30
0.0
  0
SEQEND
  5
668
330
665
100
AcDbEntity
  8
LIVELLO_1
 62
     7
  0
POLYLINE
  5
669
330
1F
100
AcDbEntity
  8
LIVELLO_1
 62
     7
100
AcDb2dPolyline
 66
     1
 10
0.0
 20
0.0
 30
0.0
  0
VERTEX
  5
66A
330
669
100
AcDbEntity
  8
LIVELLO_1
 62
     7
100
AcDbVertex
100
AcDb2dVertex
 10
113.2657894025821
 20
-156.073418976979
 30
0.0
  0
VERTEX
  5
66B
330
669
100
AcDbEntity
  8
LIVELLO_1
 62
     7
100
AcDbVertex
100
AcDb2dVertex
 10
114.5086570731131
 20
-156.073418976979
 30
0.0
  0
SEQEND
  5
66C
330
669
100
AcDbEntity
  8
LIVELLO_1
 62
     7
  0
POLYLINE
  5
66D
330
1F
100
AcDbEntity
  8
LIVELLO_1
 62
     7
100
AcDb2dPolyline
 66
     1
 10
0.0
 20
0.0
 30
0.0
  0
VERTEX
  5
66E
330
66D
100
AcDbEntity
  8
LIVELLO_1
 62
     7
100
AcDbVertex
100
AcDb2dVertex
 10
114.5086570731131
 20
-156.073418976979
 30
0.0
  0
VERTEX
  5
66F
330
66D
100
AcDbEntity
  8
LIVELLO_1
 62
     7
100
AcDbVertex
100
AcDb2dVertex
 10
114.5086570731131
 20
-159.429240610779
 30
0.0
  0
SEQEND
  5
670
330
66D
100
AcDbEntity
  8
LIVELLO_1
 62
     7
  0
POLYLINE
  5
671
330
1F
100
AcDbEntity
  8
LIVELLO_1
 62
     7
100
AcDb2dPolyline
 66
     1
 10
0.0
 20
0.0
 30
0.0
  0
VERTEX
  5
672
330
671
100
AcDbEntity
  8
LIVELLO_1
 62
     7
100
AcDbVertex
100
AcDb2dVertex
 10
114.5086570731131
 20
-159.429240610779
 30
0.0
  0
VERTEX
  5
673
330
671
100
AcDbEntity
  8
LIVELLO_1
 62
     7
100
AcDbVertex
100
AcDb2dVertex
 10
117.8644787069124
 20
-159.429240610779
 30
0.0
  0
SEQEND
  5
674
330
671
100
AcDbEntity
  8
LIVELLO_1
 62
     7
  0
POLYLINE
  5
675
330
1F
100
AcDbEntity
  8
LIVELLO_1
 62
     7
100
AcDb2dPolyline
 66
     1
 10
0.0
 20
0.0
 30
0.0
  0
VERTEX
  5
676
330
675
100
AcDbEntity
  8
LIVELLO_1
 62
     7
100
AcDbVertex
100
AcDb2dVertex
 10
117.8644787069124
 20
-159.429240610779
 30
0.0
  0
VERTEX
  5
677
330
675
100
AcDbEntity
  8
LIVELLO_1
 62
     7
100
AcDbVertex
100
AcDb2dVertex
 10
117.8644787069124
 20
-160.6721082813094
 30
0.0
  0
SEQEND
  5
678
330
675
100
AcDbEntity
  8
LIVELLO_1
 62
     7
  0
POLYLINE
  5
679
330
1F
100
AcDbEntity
  8
LIVELLO_1
 62
     7
100
AcDb2dPolyline
 66
     1
 10
0.0
 20
0.0
 30
0.0
  0
VERTEX
  5
67A
330
679
100
AcDbEntity
  8
LIVELLO_1
 62
     7
100
AcDbVertex
100
AcDb2dVertex
 10
117.8644787069124
 20
-160.6721082813094
 30
0.0
  0
VERTEX
  5
67B
330
679
100
AcDbEntity
  8
LIVELLO_1
 62
     7
100
AcDbVertex
100
AcDb2dVertex
 10
114.5086570731131
 20
-160.6721082813094
 30
0.0
  0
SEQEND
  5
67C
330
679
100
AcDbEntity
  8
LIVELLO_1
 62
     7
  0
POLYLINE
  5
67D
330
1F
100
AcDbEntity
  8
LIVELLO_1
 62
     7
100
AcDb2dPolyline
 66
     1
 10
0.0
 20
0.0
 30
0.0
  0
VERTEX
  5
67E
330
67D
100
AcDbEntity
  8
LIVELLO_1
 62
     7
100
AcDbVertex
100
AcDb2dVertex
 10
114.5086570731131
 20
-160.6721082813094
 30
0.0
  0
VERTEX
  5
67F
330
67D
100
AcDbEntity
  8
LIVELLO_1
 62
     7
100
AcDbVertex
100
AcDb2dVertex
 10
114.5086570731131
 20
-164.0279299151094
 30
0.0
  0
SEQEND
  5
680
330
67D
100
AcDbEntity
  8
LIVELLO_1
 62
     7
  0
POLYLINE
  5
681
330
1F
100
AcDbEntity
  8
LIVELLO_1
 62
     7
100
AcDb2dPolyline
 66
     1
 10
0.0
 20
0.0
 30
0.0
  0
VERTEX
  5
682
330
681
100
AcDbEntity
  8
LIVELLO_1
 62
     7
100
AcDbVertex
100
AcDb2dVertex
 10
114.5086570731131
 20
-164.0279299151094
 30
0.0
  0
VERTEX
  5
683
330
681
100
AcDbEntity
  8
LIVELLO_1
 62
     7
100
AcDbVertex
100
AcDb2dVertex
 10
113.2657894025821
 20
-164.0279299151094
 30
0.0
  0
SEQEND
  5
684
330
681
100
AcDbEntity
  8
LIVELLO_1
 62
     7
  0
POLYLINE
  5
685
330
1F
100
AcDbEntity
  8
LIVELLO_1
 62
     7
100
AcDb2dPolyline
 66
     1
 10
0.0
 20
0.0
 30
0.0
  0
VERTEX
  5
686
330
685
100
AcDbEntity
  8
LIVELLO_1
 62
     7
100
AcDbVertex
100
AcDb2dVertex
 10
83.85569762671699
 20
-121.668530278935
 30
0.0
  0
VERTEX
  5
687
330
685
100
AcDbEntity
  8
LIVELLO_1
 62
     7
100
AcDbVertex
100
AcDb2dVertex
 10
91.13900916103417
 20
-121.668530278935
 30
0.0
  0
SEQEND
  5
688
330
685
100
AcDbEntity
  8
LIVELLO_1
 62
     7
  0
POLYLINE
  5
689
330
1F
100
AcDbEntity
  8
LIVELLO_1
 62
     7
100
AcDb2dPolyline
 66
     1
 10
0.0
 20
0.0
 30
0.0
  0
VERTEX
  5
68A
330
689
100
AcDbEntity
  8
LIVELLO_1
 62
     7
100
AcDbVertex
100
AcDb2dVertex
 10
91.13900916103417
 20
-121.668530278935
 30
0.0
  0
VERTEX
  5
68B
330
689
100
AcDbEntity
  8
LIVELLO_1
 62
     7
100
AcDbVertex
100
AcDb2dVertex
 10
91.13900916103417
 20
-123.7565795347724
 30
0.0
  0
SEQEND
  5
68C
330
689
100
AcDbEntity
  8
LIVELLO_1
 62
     7
  0
POLYLINE
  5
68D
330
1F
100
AcDbEntity
  8
LIVELLO_1
 62
     7
100
AcDb2dPolyline
 66
     1
 10
0.0
 20
0.0
 30
0.0
  0
VERTEX
  5
68E
330
68D
100
AcDbEntity
  8
LIVELLO_1
 62
     7
100
AcDbVertex
100
AcDb2dVertex
 10
91.13900916103417
 20
-123.7565795347724
 30
0.0
  0
VERTEX
  5
68F
330
68D
100
AcDbEntity
  8
LIVELLO_1
 62
     7
100
AcDbVertex
100
AcDb2dVertex
 10
88.08151786062058
 20
-123.7565795347724
 30
0.0
  0
SEQEND
  5
690
330
68D
100
AcDbEntity
  8
LIVELLO_1
 62
     7
  0
POLYLINE
  5
691
330
1F
100
AcDbEntity
  8
LIVELLO_1
 62
     7
100
AcDb2dPolyline
 66
     1
 10
0.0
 20
0.0
 30
0.0
  0
VERTEX
  5
692
330
691
100
AcDbEntity
  8
LIVELLO_1
 62
     7
100
AcDbVertex
100
AcDb2dVertex
 10
91.13900916103417
 20
-126.7621567971537
 30
0.0
  0
VERTEX
  5
693
330
691
100
AcDbEntity
  8
LIVELLO_1
 62
     7
100
AcDbVertex
100
AcDb2dVertex
 10
91.13900916103417
 20
-128.8751107604258
 30
0.0
  0
SEQEND
  5
694
330
691
100
AcDbEntity
  8
LIVELLO_1
 62
     7
  0
POLYLINE
  5
695
330
1F
100
AcDbEntity
  8
LIVELLO_1
 62
     7
100
AcDb2dPolyline
 66
     1
 10
0.0
 20
0.0
 30
0.0
  0
VERTEX
  5
696
330
695
100
AcDbEntity
  8
LIVELLO_1
 62
     7
100
AcDbVertex
100
AcDb2dVertex
 10
83.85569762671699
 20
-129.516670054689
 30
0.0
  0
VERTEX
  5
697
330
695
100
AcDbEntity
  8
LIVELLO_1
 62
     7
100
AcDbVertex
100
AcDb2dVertex
 10
83.85569762671699
 20
-127.0308470209965
 30
0.0
  0
SEQEND
  5
698
330
695
100
AcDbEntity
  8
LIVELLO_1
 62
     7
  0
POLYLINE
  5
699
330
1F
100
AcDbEntity
  8
LIVELLO_1
 62
     7
100
AcDb2dPolyline
 66
     1
 10
0.0
 20
0.0
 30
0.0
  0
VERTEX
  5
69A
330
699
100
AcDbEntity
  8
LIVELLO_1
 62
     7
100
AcDbVertex
100
AcDb2dVertex
 10
85.94374688255175
 20
-123.7565795347724
 30
0.0
  0
VERTEX
  5
69B
330
699
100
AcDbEntity
  8
LIVELLO_1
 62
     7
100
AcDbVertex
100
AcDb2dVertex
 10
83.85569762671699
 20
-123.7565795347724
 30
0.0
  0
SEQEND
  5
69C
330
699
100
AcDbEntity
  8
LIVELLO_1
 62
     7
  0
POLYLINE
  5
69D
330
1F
100
AcDbEntity
  8
LIVELLO_1
 62
     7
100
AcDb2dPolyline
 66
     1
 10
0.0
 20
0.0
 30
0.0
  0
VERTEX
  5
69E
330
69D
100
AcDbEntity
  8
LIVELLO_1
 62
     7
100
AcDbVertex
100
AcDb2dVertex
 10
83.85569762671699
 20
-123.7565795347724
 30
0.0
  0
VERTEX
  5
69F
330
69D
100
AcDbEntity
  8
LIVELLO_1
 62
     7
100
AcDbVertex
100
AcDb2dVertex
 10
83.85569762671699
 20
-121.668530278935
 30
0.0
  0
SEQEND
  5
6A0
330
69D
100
AcDbEntity
  8
LIVELLO_1
 62
     7
  0
POLYLINE
  5
6A1
330
1F
100
AcDbEntity
  8
LIVELLO_1
 62
     7
100
AcDb2dPolyline
 66
     1
 10
0.0
 20
0.0
 30
0.0
  0
VERTEX
  5
6A2
330
6A1
100
AcDbEntity
  8
LIVELLO_1
 62
     7
100
AcDbVertex
100
AcDb2dVertex
 10
83.85569762671699
 20
-130.6918390134653
 30
0.0
  0
VERTEX
  5
6A3
330
6A1
100
AcDbEntity
  8
LIVELLO_1
 62
     7
100
AcDbVertex
100
AcDb2dVertex
 10
91.13900916103417
 20
-130.6918390134653
 30
0.0
  0
SEQEND
  5
6A4
330
6A1
100
AcDbEntity
  8
LIVELLO_1
 62
     7
  0
POLYLINE
  5
6A5
330
1F
100
AcDbEntity
  8
LIVELLO_1
 62
     7
100
AcDb2dPolyline
 66
     1
 10
0.0
 20
0.0
 30
0.0
  0
VERTEX
  5
6A6
330
6A5
100
AcDbEntity
  8
LIVELLO_1
 62
     7
100
AcDbVertex
100
AcDb2dVertex
 10
91.13900916103417
 20
-130.6918390134653
 30
0.0
  0
VERTEX
  5
6A7
330
6A5
100
AcDbEntity
  8
LIVELLO_1
 62
     7
100
AcDbVertex
100
AcDb2dVertex
 10
91.13900916103417
 20
-133.2273837693892
 30
0.0
  0
SEQEND
  5
6A8
330
6A5
100
AcDbEntity
  8
LIVELLO_1
 62
     7
  0
POLYLINE
  5
6A9
330
1F
100
AcDbEntity
  8
LIVELLO_1
 62
     7
100
AcDb2dPolyline
 66
     1
 10
0.0
 20
0.0
 30
0.0
  0
VERTEX
  5
6AA
330
6A9
100
AcDbEntity
  8
LIVELLO_1
 62
     7
100
AcDbVertex
100
AcDb2dVertex
 10
86.59004157893784
 20
-136.4588572512953
 30
0.0
  0
VERTEX
  5
6AB
330
6A9
100
AcDbEntity
  8
LIVELLO_1
 62
     7
100
AcDbVertex
100
AcDb2dVertex
 10
91.13900916103417
 20
-136.4588572512953
 30
0.0
  0
SEQEND
  5
6AC
330
6A9
100
AcDbEntity
  8
LIVELLO_1
 62
     7
  0
POLYLINE
  5
6AD
330
1F
100
AcDbEntity
  8
LIVELLO_1
 62
     7
100
AcDb2dPolyline
 66
     1
 10
0.0
 20
0.0
 30
0.0
  0
VERTEX
  5
6AE
330
6AD
100
AcDbEntity
  8
LIVELLO_1
 62
     7
100
AcDbVertex
100
AcDb2dVertex
 10
91.13900916103417
 20
-136.4588572512953
 30
0.0
  0
VERTEX
  5
6AF
330
6AD
100
AcDbEntity
  8
LIVELLO_1
 62
     7
100
AcDbVertex
100
AcDb2dVertex
 10
91.13900916103417
 20
-138.5469065071333
 30
0.0
  0
SEQEND
  5
6B0
330
6AD
100
AcDbEntity
  8
LIVELLO_1
 62
     7
  0
POLYLINE
  5
6B1
330
1F
100
AcDbEntity
  8
LIVELLO_1
 62
     7
100
AcDb2dPolyline
 66
     1
 10
0.0
 20
0.0
 30
0.0
  0
VERTEX
  5
6B2
330
6B1
100
AcDbEntity
  8
LIVELLO_1
 62
     7
100
AcDbVertex
100
AcDb2dVertex
 10
91.13900916103417
 20
-138.5469065071333
 30
0.0
  0
VERTEX
  5
6B3
330
6B1
100
AcDbEntity
  8
LIVELLO_1
 62
     7
100
AcDbVertex
100
AcDb2dVertex
 10
83.85569762671699
 20
-138.5469065071333
 30
0.0
  0
SEQEND
  5
6B4
330
6B1
100
AcDbEntity
  8
LIVELLO_1
 62
     7
  0
POLYLINE
  5
6B5
330
1F
100
AcDbEntity
  8
LIVELLO_1
 62
     7
100
AcDb2dPolyline
 66
     1
 10
0.0
 20
0.0
 30
0.0
  0
VERTEX
  5
6B6
330
6B5
100
AcDbEntity
  8
LIVELLO_1
 62
     7
100
AcDbVertex
100
AcDb2dVertex
 10
83.85569762671699
 20
-138.5469065071333
 30
0.0
  0
VERTEX
  5
6B7
330
6B5
100
AcDbEntity
  8
LIVELLO_1
 62
     7
100
AcDbVertex
100
AcDb2dVertex
 10
83.85569762671699
 20
-136.1357099031026
 30
0.0
  0
SEQEND
  5
6B8
330
6B5
100
AcDbEntity
  8
LIVELLO_1
 62
     7
  0
POLYLINE
  5
6B9
330
1F
100
AcDbEntity
  8
LIVELLO_1
 62
     7
100
AcDb2dPolyline
 66
     1
 10
0.0
 20
0.0
 30
0.0
  0
VERTEX
  5
6BA
330
6B9
100
AcDbEntity
  8
LIVELLO_1
 62
     7
100
AcDbVertex
100
AcDb2dVertex
 10
88.33003877915154
 20
-132.8047929767374
 30
0.0
  0
VERTEX
  5
6BB
330
6B9
100
AcDbEntity
  8
LIVELLO_1
 62
     7
100
AcDbVertex
100
AcDb2dVertex
 10
83.85569762671699
 20
-132.8047929767374
 30
0.0
  0
SEQEND
  5
6BC
330
6B9
100
AcDbEntity
  8
LIVELLO_1
 62
     7
  0
POLYLINE
  5
6BD
330
1F
100
AcDbEntity
  8
LIVELLO_1
 62
     7
100
AcDb2dPolyline
 66
     1
 10
0.0
 20
0.0
 30
0.0
  0
VERTEX
  5
6BE
330
6BD
100
AcDbEntity
  8
LIVELLO_1
 62
     7
100
AcDbVertex
100
AcDb2dVertex
 10
83.85569762671699
 20
-132.8047929767374
 30
0.0
  0
VERTEX
  5
6BF
330
6BD
100
AcDbEntity
  8
LIVELLO_1
 62
     7
100
AcDbVertex
100
AcDb2dVertex
 10
83.85569762671699
 20
-130.6918390134653
 30
0.0
  0
SEQEND
  5
6C0
330
6BD
100
AcDbEntity
  8
LIVELLO_1
 62
     7
  0
POLYLINE
  5
6C1
330
1F
100
AcDbEntity
  8
LIVELLO_1
 62
     7
100
AcDb2dPolyline
 66
     1
 10
0.0
 20
0.0
 30
0.0
  0
VERTEX
  5
6C2
330
6C1
100
AcDbEntity
  8
LIVELLO_1
 62
     7
100
AcDbVertex
100
AcDb2dVertex
 10
91.14488456736429
 20
-140.509818377387
 30
0.0
  0
VERTEX
  5
6C3
330
6C1
100
AcDbEntity
  8
LIVELLO_1
 62
     7
100
AcDbVertex
100
AcDb2dVertex
 10
91.14488456736429
 20
-142.9210149814177
 30
0.0
  0
SEQEND
  5
6C4
330
6C1
100
AcDbEntity
  8
LIVELLO_1
 62
     7
  0
POLYLINE
  5
6C5
330
1F
100
AcDbEntity
  8
LIVELLO_1
 62
     7
100
AcDb2dPolyline
 66
     1
 10
0.0
 20
0.0
 30
0.0
  0
VERTEX
  5
6C6
330
6C5
100
AcDbEntity
  8
LIVELLO_1
 62
     7
100
AcDbVertex
100
AcDb2dVertex
 10
91.15716153581619
 20
-146.931286726356
 30
0.0
  0
VERTEX
  5
6C7
330
6C5
100
AcDbEntity
  8
LIVELLO_1
 62
     7
100
AcDbVertex
100
AcDb2dVertex
 10
91.15716153581619
 20
-149.0442406896274
 30
0.0
  0
SEQEND
  5
6C8
330
6C5
100
AcDbEntity
  8
LIVELLO_1
 62
     7
  0
POLYLINE
  5
6C9
330
1F
100
AcDbEntity
  8
LIVELLO_1
 62
     7
100
AcDb2dPolyline
 66
     1
 10
0.0
 20
0.0
 30
0.0
  0
VERTEX
  5
6CA
330
6C9
100
AcDbEntity
  8
LIVELLO_1
 62
     7
100
AcDbVertex
100
AcDb2dVertex
 10
83.86157303304743
 20
-149.0367868159224
 30
0.0
  0
VERTEX
  5
6CB
330
6C9
100
AcDbEntity
  8
LIVELLO_1
 62
     7
100
AcDbVertex
100
AcDb2dVertex
 10
83.86157303304743
 20
-146.6255902118917
 30
0.0
  0
SEQEND
  5
6CC
330
6C9
100
AcDbEntity
  8
LIVELLO_1
 62
     7
  0
POLYLINE
  5
6CD
330
1F
100
AcDbEntity
  8
LIVELLO_1
 62
     7
100
AcDb2dPolyline
 66
     1
 10
0.0
 20
0.0
 30
0.0
  0
VERTEX
  5
6CE
330
6CD
100
AcDbEntity
  8
LIVELLO_1
 62
     7
100
AcDbVertex
100
AcDb2dVertex
 10
83.87385000149965
 20
-141.8844003808854
 30
0.0
  0
VERTEX
  5
6CF
330
6CD
100
AcDbEntity
  8
LIVELLO_1
 62
     7
100
AcDbVertex
100
AcDb2dVertex
 10
83.87385000149965
 20
-139.7715341102481
 30
0.0
  0
SEQEND
  5
6D0
330
6CD
100
AcDbEntity
  8
LIVELLO_1
 62
     7
  0
POLYLINE
  5
6D1
330
1F
100
AcDbEntity
  8
LIVELLO_1
 62
     7
100
AcDb2dPolyline
 66
     1
 10
0.0
 20
0.0
 30
0.0
  0
VERTEX
  5
6D2
330
6D1
100
AcDbEntity
  8
LIVELLO_1
 62
     7
100
AcDbVertex
100
AcDb2dVertex
 10
91.61632015593175
 20
-123.7459687263232
 30
0.0
  0
VERTEX
  5
6D3
330
6D1
100
AcDbEntity
  8
LIVELLO_1
 62
     7
100
AcDbVertex
100
AcDb2dVertex
 10
91.61632015593175
 20
-121.6800180136991
 30
0.0
  0
SEQEND
  5
6D4
330
6D1
100
AcDbEntity
  8
LIVELLO_1
 62
     7
  0
POLYLINE
  5
6D5
330
1F
100
AcDbEntity
  8
LIVELLO_1
 62
     7
100
AcDb2dPolyline
 66
     1
 10
0.0
 20
0.0
 30
0.0
  0
VERTEX
  5
6D6
330
6D5
100
AcDbEntity
  8
LIVELLO_1
 62
     7
100
AcDbVertex
100
AcDb2dVertex
 10
91.61632015593175
 20
-148.9315556577577
 30
0.0
  0
VERTEX
  5
6D7
330
6D5
100
AcDbEntity
  8
LIVELLO_1
 62
     7
100
AcDbVertex
100
AcDb2dVertex
 10
91.61632015593175
 20
-146.8656049451336
 30
0.0
  0
SEQEND
  5
6D8
330
6D5
100
AcDbEntity
  8
LIVELLO_1
 62
     7
  0
POLYLINE
  5
6D9
330
1F
100
AcDbEntity
  8
LIVELLO_1
 62
     7
100
AcDb2dPolyline
 66
     1
 10
0.0
 20
0.0
 30
0.0
  0
VERTEX
  5
6DA
330
6D9
100
AcDbEntity
  8
LIVELLO_1
 62
     7
100
AcDbVertex
100
AcDb2dVertex
 10
89.75039633644633
 20
-108.500867765439
 30
0.0
  0
VERTEX
  5
6DB
330
6D9
100
AcDbEntity
  8
LIVELLO_1
 62
     7
100
AcDbVertex
100
AcDb2dVertex
 10
89.75039633644633
 20
-110.6583695856654
 30
0.0
  0
SEQEND
  5
6DC
330
6D9
100
AcDbEntity
  8
LIVELLO_1
 62
     7
  0
POLYLINE
  5
6DD
330
1F
100
AcDbEntity
  8
LIVELLO_1
 62
     7
100
AcDb2dPolyline
 66
     1
 10
0.0
 20
0.0
 30
0.0
  0
VERTEX
  5
6DE
330
6DD
100
AcDbEntity
  8
LIVELLO_1
 62
     7
100
AcDbVertex
100
AcDb2dVertex
 10
110.1337593651409
 20
-187.3445237849418
 30
0.0
  0
VERTEX
  5
6DF
330
6DD
100
AcDbEntity
  8
LIVELLO_1
 62
     7
100
AcDbVertex
100
AcDb2dVertex
 10
110.1337593651409
 20
-189.311732594161
 30
0.0
  0
SEQEND
  5
6E0
330
6DD
100
AcDbEntity
  8
LIVELLO_1
 62
     7
  0
POLYLINE
  5
6E1
330
1F
100
AcDbEntity
  8
LIVELLO_1
 62
     7
100
AcDb2dPolyline
 66
     1
 10
0.0
 20
0.0
 30
0.0
  0
VERTEX
  5
6E2
330
6E1
100
AcDbEntity
  8
LIVELLO_1
 62
     7
100
AcDbVertex
100
AcDb2dVertex
 10
115.1053177398923
 20
-187.3445237849418
 30
0.0
  0
VERTEX
  5
6E3
330
6E1
100
AcDbEntity
  8
LIVELLO_1
 62
     7
100
AcDbVertex
100
AcDb2dVertex
 10
115.1053177398923
 20
-189.3089264299401
 30
0.0
  0
SEQEND
  5
6E4
330
6E1
100
AcDbEntity
  8
LIVELLO_1
 62
     7
  0
POLYLINE
  5
6E5
330
1F
100
AcDbEntity
  8
LIVELLO_1
 62
     7
100
AcDb2dPolyline
 66
     1
 10
0.0
 20
0.0
 30
0.0
  0
VERTEX
  5
6E6
330
6E5
100
AcDbEntity
  8
LIVELLO_1
 62
     7
100
AcDbVertex
100
AcDb2dVertex
 10
95.96482238172877
 20
-108.3821319419804
 30
0.0
  0
VERTEX
  5
6E7
330
6E5
100
AcDbEntity
  8
LIVELLO_1
 62
     7
100
AcDbVertex
100
AcDb2dVertex
 10
95.96482238172877
 20
-110.6583695856654
 30
0.0
  0
SEQEND
  5
6E8
330
6E5
100
AcDbEntity
  8
LIVELLO_1
 62
     7
  0
POLYLINE
  5
6E9
330
1F
100
AcDbEntity
  8
LIVELLO_1
 62
     7
100
AcDb2dPolyline
 66
     1
 10
0.0
 20
0.0
 30
0.0
  0
VERTEX
  5
6EA
330
6E9
100
AcDbEntity
  8
LIVELLO_1
 62
     7
100
AcDbVertex
100
AcDb2dVertex
 10
77.43703544197203
 20
-189.3027879457145
 30
0.0
  0
VERTEX
  5
6EB
330
6E9
100
AcDbEntity
  8
LIVELLO_1
 62
     7
100
AcDbVertex
100
AcDb2dVertex
 10
77.43703544197203
 20
-187.3445237849418
 30
0.0
  0
SEQEND
  5
6EC
330
6E9
100
AcDbEntity
  8
LIVELLO_1
 62
     7
  0
POLYLINE
  5
6ED
330
1F
100
AcDbEntity
  8
LIVELLO_1
 62
     7
100
AcDb2dPolyline
 66
     1
 10
0.0
 20
0.0
 30
0.0
  0
VERTEX
  5
6EE
330
6ED
100
AcDbEntity
  8
LIVELLO_1
 62
     7
100
AcDbVertex
100
AcDb2dVertex
 10
82.90581103904088
 20
-189.2682370487867
 30
0.0
  0
VERTEX
  5
6EF
330
6ED
100
AcDbEntity
  8
LIVELLO_1
 62
     7
100
AcDbVertex
100
AcDb2dVertex
 10
82.90581103904088
 20
-187.3445237849418
 30
0.0
  0
SEQEND
  5
6F0
330
6ED
100
AcDbEntity
  8
LIVELLO_1
 62
     7
  0
SPLINE
  5
6F1
330
1F
100
AcDbEntity
  8
LIVELLO_1
 62
     7
100
AcDbSpline
210
0.0
220
0.0
230
1.0
 70
     8
 71
     3
 72
    11
 73
     7
 74
     0
 42
0.0000000001
 43
0.0000000001
 12
1.0
 22
0.0
 32
0.0
 13
1.0
 23
0.0
 33
0.0
 40
0.0
 40
0.0
 40
0.0
 40
0.0
 40
1.0
 40
1.0
 40
1.0
 40
2.0
 40
2.0
 40
2.0
 40
2.0
 10
82.96377586865496
 20
-166.5633869783991
 30
0.0
 10
82.33475662074271
 20
-163.4816925116114
 30
0.0
 10
84.68956686252464
 20
-160.5975695442754
 30
0.0
 10
87.8349261799949
 20
-160.5975695442754
 30
0.0
 10
90.98028549747188
 20
-160.5975695442754
 30
0.0
 10
93.33509573924708
 20
-163.4816925116114
 30
0.0
 10
92.70598879870705
 20
-166.5633869783991
 30
0.0
  0
SPLINE
  5
6F2
330
1F
100
AcDbEntity
  8
LIVELLO_1
 62
     7
100
AcDbSpline
210
0.0
220
0.0
230
1.0
 70
     8
 71
     3
 72
    11
 73
     7
 74
     0
 42
0.0000000001
 43
0.0000000001
 12
1.0
 22
0.0
 32
0.0
 13
1.0
 23
0.0
 33
0.0
 40
0.0
 40
0.0
 40
0.0
 40
0.0
 40
1.0
 40
1.0
 40
1.0
 40
2.0
 40
2.0
 40
2.0
 40
2.0
 10
91.16996466006005
 20
-166.5633869783991
 30
0.0
 10
91.83528865753698
 20
-164.3317848843026
 30
0.0
 10
90.16360401749746
 20
-162.0890458259646
 30
0.0
 10
87.8349261799949
 20
-162.0890458259646
 30
0.0
 10
85.50624834249233
 20
-162.0890458259646
 30
0.0
 10
83.83456370245281
 20
-164.3317848843026
 30
0.0
 10
84.49988769992974
 20
-166.5633869783991
 30
0.0
  0
SPLINE
  5
6F3
330
1F
100
AcDbEntity
  8
LIVELLO_1
 62
     7
100
AcDbSpline
210
0.0
220
0.0
230
1.0
 70
     8
 71
     3
 72
    11
 73
     7
 74
     0
 42
0.0000000001
 43
0.0000000001
 12
1.0
 22
0.0
 32
0.0
 13
1.0
 23
0.0
 33
0.0
 40
0.0
 40
0.0
 40
0.0
 40
0.0
 40
1.0
 40
1.0
 40
1.0
 40
2.0
 40
2.0
 40
2.0
 40
2.0
 10
82.96377586865496
 20
-175.0150274462121
 30
0.0
 10
82.33475662074271
 20
-171.9333329794308
 30
0.0
 10
84.68956686252464
 20
-169.0492100120884
 30
0.0
 10
87.8349261799949
 20
-169.0492100120884
 30
0.0
 10
90.98028549747188
 20
-169.0492100120884
 30
0.0
 10
93.33509573924708
 20
-171.9333329794308
 30
0.0
 10
92.70598879870705
 20
-175.0150274462121
 30
0.0
  0
SPLINE
  5
6F4
330
1F
100
AcDbEntity
  8
LIVELLO_1
 62
     7
100
AcDbSpline
210
0.0
220
0.0
230
1.0
 70
     8
 71
     3
 72
     8
 73
     4
 74
     0
 42
0.0000000001
 43
0.0000000001
 12
1.0
 22
0.0
 32
0.0
 13
1.0
 23
0.0
 33
0.0
 40
0.0
 40
0.0
 40
0.0
 40
0.0
 40
1.0
 40
1.0
 40
1.0
 40
1.0
 10
91.16996466006005
 20
-175.0150274462121
 30
0.0
 10
91.73917753308713
 20
-173.1058711592547
 30
0.0
 10
90.59250867964651
 20
-171.1094607036475
 30
0.0
 10
88.6566061399842
 20
-170.6390774266566
 30
0.0
  0
SPLINE
  5
6F5
330
1F
100
AcDbEntity
  8
LIVELLO_1
 62
     7
100
AcDbSpline
210
0.0
220
0.0
230
1.0
 70
     8
 71
     3
 72
     8
 73
     4
 74
     0
 42
0.0000000001
 43
0.0000000001
 12
1.0
 22
0.0
 32
0.0
 13
1.0
 23
0.0
 33
0.0
 40
0.0
 40
0.0
 40
0.0
 40
0.0
 40
1.0
 40
1.0
 40
1.0
 40
1.0
 10
87.16512985828831
 20
-170.605754226574
 30
0.0
 10
85.14960240895513
 20
-171.0009849181045
 30
0.0
 10
83.91304860791871
 20
-173.0467663254167
 30
0.0
 10
84.49988769992974
 20
-175.0150274462121
 30
0.0
  0
POLYLINE
  5
6F6
330
1F
100
AcDbEntity
  8
LIVELLO_1
 62
     7
100
AcDb2dPolyline
 66
     1
 10
0.0
 20
0.0
 30
0.0
  0
VERTEX
  5
6F7
330
6F6
100
AcDbEntity
  8
LIVELLO_1
 62
     7
100
AcDbVertex
100
AcDb2dVertex
 10
88.08151786062058
 20
-123.7565795347724
 30
0.0
  0
VERTEX
  5
6F8
330
6F6
100
AcDbEntity
  8
LIVELLO_1
 62
     7
100
AcDbVertex
100
AcDb2dVertex
 10
91.13900916103417
 20
-126.7621567971537
 30
0.0
  0
SEQEND
  5
6F9
330
6F6
100
AcDbEntity
  8
LIVELLO_1
 62
     7
  0
POLYLINE
  5
6FA
330
1F
100
AcDbEntity
  8
LIVELLO_1
 62
     7
100
AcDb2dPolyline
 66
     1
 10
0.0
 20
0.0
 30
0.0
  0
VERTEX
  5
6FB
330
6FA
100
AcDbEntity
  8
LIVELLO_1
 62
     7
100
AcDbVertex
100
AcDb2dVertex
 10
91.13900916103417
 20
-128.8751107604258
 30
0.0
  0
VERTEX
  5
6FC
330
6FA
100
AcDbEntity
  8
LIVELLO_1
 62
     7
100
AcDbVertex
100
AcDb2dVertex
 10
88.13571190707819
 20
-125.9227629255459
 30
0.0
  0
SEQEND
  5
6FD
330
6FA
100
AcDbEntity
  8
LIVELLO_1
 62
     7
  0
POLYLINE
  5
6FE
330
1F
100
AcDbEntity
  8
LIVELLO_1
 62
     7
100
AcDb2dPolyline
 66
     1
 10
0.0
 20
0.0
 30
0.0
  0
VERTEX
  5
6FF
330
6FE
100
AcDbEntity
  8
LIVELLO_1
 62
     7
100
AcDbVertex
100
AcDb2dVertex
 10
88.13571190707819
 20
-125.9227629255459
 30
0.0
  0
VERTEX
  5
700
330
6FE
100
AcDbEntity
  8
LIVELLO_1
 62
     7
100
AcDbVertex
100
AcDb2dVertex
 10
83.85569762671699
 20
-129.516670054689
 30
0.0
  0
SEQEND
  5
701
330
6FE
100
AcDbEntity
  8
LIVELLO_1
 62
     7
  0
POLYLINE
  5
702
330
1F
100
AcDbEntity
  8
LIVELLO_1
 62
     7
100
AcDb2dPolyline
 66
     1
 10
0.0
 20
0.0
 30
0.0
  0
VERTEX
  5
703
330
702
100
AcDbEntity
  8
LIVELLO_1
 62
     7
100
AcDbVertex
100
AcDb2dVertex
 10
83.85569762671699
 20
-127.0308470209965
 30
0.0
  0
VERTEX
  5
704
330
702
100
AcDbEntity
  8
LIVELLO_1
 62
     7
100
AcDbVertex
100
AcDb2dVertex
 10
86.77822996678493
 20
-124.5768564126484
 30
0.0
  0
SEQEND
  5
705
330
702
100
AcDbEntity
  8
LIVELLO_1
 62
     7
  0
POLYLINE
  5
706
330
1F
100
AcDbEntity
  8
LIVELLO_1
 62
     7
100
AcDb2dPolyline
 66
     1
 10
0.0
 20
0.0
 30
0.0
  0
VERTEX
  5
707
330
706
100
AcDbEntity
  8
LIVELLO_1
 62
     7
100
AcDbVertex
100
AcDb2dVertex
 10
86.77822996678493
 20
-124.5768564126484
 30
0.0
  0
VERTEX
  5
708
330
706
100
AcDbEntity
  8
LIVELLO_1
 62
     7
100
AcDbVertex
100
AcDb2dVertex
 10
85.94374688255175
 20
-123.7565795347724
 30
0.0
  0
SEQEND
  5
709
330
706
100
AcDbEntity
  8
LIVELLO_1
 62
     7
  0
POLYLINE
  5
70A
330
1F
100
AcDbEntity
  8
LIVELLO_1
 62
     7
100
AcDb2dPolyline
 66
     1
 10
0.0
 20
0.0
 30
0.0
  0
VERTEX
  5
70B
330
70A
100
AcDbEntity
  8
LIVELLO_1
 62
     7
100
AcDbVertex
100
AcDb2dVertex
 10
91.13900916103417
 20
-133.2273837693892
 30
0.0
  0
VERTEX
  5
70C
330
70A
100
AcDbEntity
  8
LIVELLO_1
 62
     7
100
AcDbVertex
100
AcDb2dVertex
 10
86.59004157893784
 20
-136.4588572512953
 30
0.0
  0
SEQEND
  5
70D
330
70A
100
AcDbEntity
  8
LIVELLO_1
 62
     7
  0
POLYLINE
  5
70E
330
1F
100
AcDbEntity
  8
LIVELLO_1
 62
     7
100
AcDb2dPolyline
 66
     1
 10
0.0
 20
0.0
 30
0.0
  0
VERTEX
  5
70F
330
70E
100
AcDbEntity
  8
LIVELLO_1
 62
     7
100
AcDbVertex
100
AcDb2dVertex
 10
83.85569762671699
 20
-136.1357099031026
 30
0.0
  0
VERTEX
  5
710
330
70E
100
AcDbEntity
  8
LIVELLO_1
 62
     7
100
AcDbVertex
100
AcDb2dVertex
 10
88.33003877915154
 20
-132.8047929767374
 30
0.0
  0
SEQEND
  5
711
330
70E
100
AcDbEntity
  8
LIVELLO_1
 62
     7
  0
POLYLINE
  5
712
330
1F
100
AcDbEntity
  8
LIVELLO_1
 62
     7
100
AcDb2dPolyline
 66
     1
 10
0.0
 20
0.0
 30
0.0
  0
VERTEX
  5
713
330
712
100
AcDbEntity
  8
LIVELLO_1
 62
     7
100
AcDbVertex
100
AcDb2dVertex
 10
83.87385000149965
 20
-139.7715341102481
 30
0.0
  0
VERTEX
  5
714
330
712
100
AcDbEntity
  8
LIVELLO_1
 62
     7
100
AcDbVertex
100
AcDb2dVertex
 10
87.62858541736516
 20
-143.4625169827933
 30
0.0
  0
SEQEND
  5
715
330
712
100
AcDbEntity
  8
LIVELLO_1
 62
     7
  0
POLYLINE
  5
716
330
1F
100
AcDbEntity
  8
LIVELLO_1
 62
     7
100
AcDb2dPolyline
 66
     1
 10
0.0
 20
0.0
 30
0.0
  0
VERTEX
  5
717
330
716
100
AcDbEntity
  8
LIVELLO_1
 62
     7
100
AcDbVertex
100
AcDb2dVertex
 10
87.62858541736516
 20
-143.4625169827933
 30
0.0
  0
VERTEX
  5
718
330
716
100
AcDbEntity
  8
LIVELLO_1
 62
     7
100
AcDbVertex
100
AcDb2dVertex
 10
91.14488456736429
 20
-140.509818377387
 30
0.0
  0
SEQEND
  5
719
330
716
100
AcDbEntity
  8
LIVELLO_1
 62
     7
  0
POLYLINE
  5
71A
330
1F
100
AcDbEntity
  8
LIVELLO_1
 62
     7
100
AcDb2dPolyline
 66
     1
 10
0.0
 20
0.0
 30
0.0
  0
VERTEX
  5
71B
330
71A
100
AcDbEntity
  8
LIVELLO_1
 62
     7
100
AcDbVertex
100
AcDb2dVertex
 10
91.14488456736429
 20
-142.9210149814177
 30
0.0
  0
VERTEX
  5
71C
330
71A
100
AcDbEntity
  8
LIVELLO_1
 62
     7
100
AcDbVertex
100
AcDb2dVertex
 10
88.95142876810318
 20
-144.7629110197874
 30
0.0
  0
SEQEND
  5
71D
330
71A
100
AcDbEntity
  8
LIVELLO_1
 62
     7
  0
POLYLINE
  5
71E
330
1F
100
AcDbEntity
  8
LIVELLO_1
 62
     7
100
AcDb2dPolyline
 66
     1
 10
0.0
 20
0.0
 30
0.0
  0
VERTEX
  5
71F
330
71E
100
AcDbEntity
  8
LIVELLO_1
 62
     7
100
AcDbVertex
100
AcDb2dVertex
 10
88.95142876810318
 20
-144.7629110197874
 30
0.0
  0
VERTEX
  5
720
330
71E
100
AcDbEntity
  8
LIVELLO_1
 62
     7
100
AcDbVertex
100
AcDb2dVertex
 10
91.15716153581619
 20
-146.931286726356
 30
0.0
  0
SEQEND
  5
721
330
71E
100
AcDbEntity
  8
LIVELLO_1
 62
     7
  0
POLYLINE
  5
722
330
1F
100
AcDbEntity
  8
LIVELLO_1
 62
     7
100
AcDb2dPolyline
 66
     1
 10
0.0
 20
0.0
 30
0.0
  0
VERTEX
  5
723
330
722
100
AcDbEntity
  8
LIVELLO_1
 62
     7
100
AcDbVertex
100
AcDb2dVertex
 10
91.15716153581619
 20
-149.0442406896274
 30
0.0
  0
VERTEX
  5
724
330
722
100
AcDbEntity
  8
LIVELLO_1
 62
     7
100
AcDbVertex
100
AcDb2dVertex
 10
87.79221986830876
 20
-145.7362992327882
 30
0.0
  0
SEQEND
  5
725
330
722
100
AcDbEntity
  8
LIVELLO_1
 62
     7
  0
POLYLINE
  5
726
330
1F
100
AcDbEntity
  8
LIVELLO_1
 62
     7
100
AcDb2dPolyline
 66
     1
 10
0.0
 20
0.0
 30
0.0
  0
VERTEX
  5
727
330
726
100
AcDbEntity
  8
LIVELLO_1
 62
     7
100
AcDbVertex
100
AcDb2dVertex
 10
87.79221986830876
 20
-145.7362992327882
 30
0.0
  0
VERTEX
  5
728
330
726
100
AcDbEntity
  8
LIVELLO_1
 62
     7
100
AcDbVertex
100
AcDb2dVertex
 10
83.86157303304743
 20
-149.0367868159224
 30
0.0
  0
SEQEND
  5
729
330
726
100
AcDbEntity
  8
LIVELLO_1
 62
     7
  0
POLYLINE
  5
72A
330
1F
100
AcDbEntity
  8
LIVELLO_1
 62
     7
100
AcDb2dPolyline
 66
     1
 10
0.0
 20
0.0
 30
0.0
  0
VERTEX
  5
72B
330
72A
100
AcDbEntity
  8
LIVELLO_1
 62
     7
100
AcDbVertex
100
AcDb2dVertex
 10
83.86157303304743
 20
-146.6255902118917
 30
0.0
  0
VERTEX
  5
72C
330
72A
100
AcDbEntity
  8
LIVELLO_1
 62
     7
100
AcDbVertex
100
AcDb2dVertex
 10
86.46937651757072
 20
-144.435905195797
 30
0.0
  0
SEQEND
  5
72D
330
72A
100
AcDbEntity
  8
LIVELLO_1
 62
     7
  0
POLYLINE
  5
72E
330
1F
100
AcDbEntity
  8
LIVELLO_1
 62
     7
100
AcDb2dPolyline
 66
     1
 10
0.0
 20
0.0
 30
0.0
  0
VERTEX
  5
72F
330
72E
100
AcDbEntity
  8
LIVELLO_1
 62
     7
100
AcDbVertex
100
AcDb2dVertex
 10
86.46937651757072
 20
-144.435905195797
 30
0.0
  0
VERTEX
  5
730
330
72E
100
AcDbEntity
  8
LIVELLO_1
 62
     7
100
AcDbVertex
100
AcDb2dVertex
 10
83.87385000149965
 20
-141.8844003808854
 30
0.0
  0
SEQEND
  5
731
330
72E
100
AcDbEntity
  8
LIVELLO_1
 62
     7
  0
SPLINE
  5
732
330
1F
100
AcDbEntity
  8
LIVELLO_1
 62
     7
100
AcDbSpline
210
0.0
220
0.0
230
1.0
 70
     8
 71
     3
 72
     8
 73
     4
 74
     0
 42
0.0000000001
 43
0.0000000001
 12
1.0
 22
0.0
 32
0.0
 13
1.0
 23
0.0
 33
0.0
 40
0.0
 40
0.0
 40
0.0
 40
0.0
 40
1.0
 40
1.0
 40
1.0
 40
1.0
 10
91.61632015593175
 20
-146.8656049451336
 30
0.0
 10
96.70801743625185
 20
-140.0001488013563
 30
0.0
 10
96.70801743625185
 20
-130.611512562735
 30
0.0
 10
91.61632015593175
 20
-123.7459687263232
 30
0.0
  0
SPLINE
  5
733
330
1F
100
AcDbEntity
  8
LIVELLO_1
 62
     7
100
AcDbSpline
210
0.0
220
0.0
230
1.0
 70
     8
 71
     3
 72
     8
 73
     4
 74
     0
 42
0.0000000001
 43
0.0000000001
 12
1.0
 22
0.0
 32
0.0
 13
1.0
 23
0.0
 33
0.0
 40
0.0
 40
0.0
 40
0.0
 40
0.0
 40
1.0
 40
1.0
 40
1.0
 40
1.0
 10
91.61632015593175
 20
-121.6800180136991
 30
0.0
 10
98.4377545985467
 20
-129.4832591619729
 30
0.0
 10
98.4377545985467
 20
-141.1284022021181
 30
0.0
 10
91.61632015593175
 20
-148.9315556577577
 30
0.0
  0
SPLINE
  5
734
330
1F
100
AcDbEntity
  8
LIVELLO_1
 62
     7
100
AcDbSpline
210
0.0
220
0.0
230
1.0
 70
     8
 71
     3
 72
    11
 73
     7
 74
     0
 42
0.0000000001
 43
0.0000000001
 12
1.0
 22
0.0
 32
0.0
 13
1.0
 23
0.0
 33
0.0
 40
0.0
 40
0.0
 40
0.0
 40
0.0
 40
1.0
 40
1.0
 40
1.0
 40
2.0
 40
2.0
 40
2.0
 40
2.0
 10
127.4844481082225
 20
-138.9961558598529
 30
0.0
 10
127.4844481082225
 20
-136.5936408263732
 30
0.0
 10
129.4320137679112
 20
-134.6460751666845
 30
0.0
 10
131.8345288013948
 20
-134.6460751666845
 30
0.0
 10
134.2370438348713
 20
-134.6460751666845
 30
0.0
 10
136.1846971871942
 20
-136.5936408263732
 30
0.0
 10
136.1846971871942
 20
-138.9961558598529
 30
0.0
  0
SPLINE
  5
735
330
1F
100
AcDbEntity
  8
LIVELLO_1
 62
     7
100
AcDbSpline
210
0.0
220
0.0
230
1.0
 70
     8
 71
     3
 72
     8
 73
     4
 74
     0
 42
0.0000000001
 43
0.0000000001
 12
1.0
 22
0.0
 32
0.0
 13
1.0
 23
0.0
 33
0.0
 40
0.0
 40
0.0
 40
0.0
 40
0.0
 40
1.0
 40
1.0
 40
1.0
 40
1.0
 10
136.1846971871942
 20
-138.9961558598529
 30
0.0
 10
136.1846971871942
 20
-141.3986708933333
 30
0.0
 10
134.2370438348713
 20
-143.3463242456562
 30
0.0
 10
131.8345288013948
 20
-143.3463242456562
 30
0.0
  0
SPLINE
  5
736
330
1F
100
AcDbEntity
  8
LIVELLO_1
 62
     7
100
AcDbSpline
210
0.0
220
0.0
230
1.0
 70
     8
 71
     3
 72
     8
 73
     4
 74
     0
 42
0.0000000001
 43
0.0000000001
 12
1.0
 22
0.0
 32
0.0
 13
1.0
 23
0.0
 33
0.0
 40
0.0
 40
0.0
 40
0.0
 40
0.0
 40
1.0
 40
1.0
 40
1.0
 40
1.0
 10
131.8345288013948
 20
-143.3463242456562
 30
0.0
 10
129.4320137679112
 20
-143.3463242456562
 30
0.0
 10
127.4844481082225
 20
-141.3986708933333
 30
0.0
 10
127.4844481082225
 20
-138.9961558598529
 30
0.0
  0
POLYLINE
  5
737
330
1F
100
AcDbEntity
  8
LIVELLO_1
 62
     7
100
AcDb2dPolyline
 66
     1
 10
0.0
 20
0.0
 30
0.0
  0
VERTEX
  5
738
330
737
100
AcDbEntity
  8
LIVELLO_1
 62
     7
100
AcDbVertex
100
AcDb2dVertex
 10
83.59656589973716
 20
-188.3195781579488
 30
0.0
  0
VERTEX
  5
739
330
737
100
AcDbEntity
  8
LIVELLO_1
 62
     7
100
AcDbVertex
100
AcDb2dVertex
 10
83.59656589973716
 20
-188.3230858632226
 30
0.0
  0
SEQEND
  5
73A
330
737
100
AcDbEntity
  8
LIVELLO_1
 62
     7
  0
POLYLINE
  5
73B
330
1F
100
AcDbEntity
  8
LIVELLO_1
 62
     7
100
AcDb2dPolyline
 66
     1
 10
0.0
 20
0.0
 30
0.0
  0
VERTEX
  5
73C
330
73B
100
AcDbEntity
  8
LIVELLO_1
 62
     7
100
AcDbVertex
100
AcDb2dVertex
 10
109.0788170045614
 20
-188.3230858632226
 30
0.0
  0
VERTEX
  5
73D
330
73B
100
AcDbEntity
  8
LIVELLO_1
 62
     7
100
AcDbVertex
100
AcDb2dVertex
 10
109.0788170045614
 20
-188.3195781579488
 30
0.0
  0
SEQEND
  5
73E
330
73B
100
AcDbEntity
  8
LIVELLO_1
 62
     7
  0
SPLINE
  5
73F
330
1F
100
AcDbEntity
  8
LIVELLO_1
 62
     7
100
AcDbSpline
210
0.0
220
0.0
230
1.0
 70
     8
 71
     3
 72
    11
 73
     7
 74
     0
 42
0.0000000001
 43
0.0000000001
 12
1.0
 22
0.0
 32
0.0
 13
1.0
 23
0.0
 33
0.0
 40
0.0
 40
0.0
 40
0.0
 40
0.0
 40
1.0
 40
1.0
 40
1.0
 40
2.0
 40
2.0
 40
2.0
 40
2.0
 10
134.3534996499046
 20
-139.1521610518292
 30
0.0
 10
134.9763804135973
 20
-140.7476407948346
 30
0.0
 10
133.9957137121563
 20
-142.5164011782833
 30
0.0
 10
132.3126290299798
 20
-142.833322349613
 30
0.0
 10
130.6294566551691
 20
-143.1502435209459
 30
0.0
 10
129.072649362788
 20
-141.859232595559
 30
0.0
 10
129.072649362788
 20
-140.1465078038325
 30
0.0
  0
POLYLINE
  5
740
330
1F
100
AcDbEntity
  8
LIVELLO_1
 62
     7
100
AcDb2dPolyline
 66
     1
 10
0.0
 20
0.0
 30
0.0
  0
VERTEX
  5
741
330
740
100
AcDbEntity
  8
LIVELLO_1
 62
     7
100
AcDbVertex
100
AcDb2dVertex
 10
129.3271333802768
 20
-140.1465078038325
 30
0.0
  0
VERTEX
  5
742
330
740
100
AcDbEntity
  8
LIVELLO_1
 62
     7
100
AcDbVertex
100
AcDb2dVertex
 10
129.072649362788
 20
-140.1465078038325
 30
0.0
  0
SEQEND
  5
743
330
740
100
AcDbEntity
  8
LIVELLO_1
 62
     7
  0
POLYLINE
  5
744
330
1F
100
AcDbEntity
  8
LIVELLO_1
 62
     7
100
AcDb2dPolyline
 66
     1
 10
0.0
 20
0.0
 30
0.0
  0
VERTEX
  5
745
330
744
100
AcDbEntity
  8
LIVELLO_1
 62
     7
100
AcDbVertex
100
AcDb2dVertex
 10
145.1574072731754
 20
-110.6583695856654
 30
0.0
  0
VERTEX
  5
746
330
744
100
AcDbEntity
  8
LIVELLO_1
 62
     7
100
AcDbVertex
100
AcDb2dVertex
 10
144.7519165437255
 20
-110.6583695856654
 30
0.0
  0
SEQEND
  5
747
330
744
100
AcDbEntity
  8
LIVELLO_1
 62
     7
  0
POLYLINE
  5
748
330
1F
100
AcDbEntity
  8
LIVELLO_1
 62
     7
100
AcDb2dPolyline
 66
     1
 10
0.0
 20
0.0
 30
0.0
  0
VERTEX
  5
749
330
748
100
AcDbEntity
  8
LIVELLO_1
 62
     7
100
AcDbVertex
100
AcDb2dVertex
 10
144.9754450621882
 20
-157.0180440067451
 30
0.0
  0
VERTEX
  5
74A
330
748
100
AcDbEntity
  8
LIVELLO_1
 62
     7
100
AcDbVertex
100
AcDb2dVertex
 10
122.6034762221211
 20
-157.0180440067451
 30
0.0
  0
SEQEND
  5
74B
330
748
100
AcDbEntity
  8
LIVELLO_1
 62
     7
  0
SPLINE
  5
74C
330
1F
100
AcDbEntity
  8
LIVELLO_1
 62
     7
100
AcDbSpline
210
0.0
220
0.0
230
1.0
 70
     8
 71
     3
 72
    11
 73
     7
 74
     0
 42
0.0000000001
 43
0.0000000001
 12
1.0
 22
0.0
 32
0.0
 13
1.0
 23
0.0
 33
0.0
 40
0.0
 40
0.0
 40
0.0
 40
0.0
 40
1.0
 40
1.0
 40
1.0
 40
2.0
 40
2.0
 40
2.0
 40
2.0
 10
129.2598731316859
 20
-139.1520733591982
 30
0.0
 10
128.6370800606274
 20
-137.5566813088235
 30
0.0
 10
129.6177467620677
 20
-135.7879209253776
 30
0.0
 10
131.3008314442449
 20
-135.4710874466757
 30
0.0
 10
132.9840038190555
 20
-135.1541662753434
 30
0.0
 10
134.5407234188025
 20
-136.445177200733
 30
0.0
 10
134.5407234188025
 20
-138.1579019924601
 30
0.0
  0
POLYLINE
  5
74D
330
1F
100
AcDbEntity
  8
LIVELLO_1
 62
     7
100
AcDb2dPolyline
 66
     1
 10
0.0
 20
0.0
 30
0.0
  0
VERTEX
  5
74E
330
74D
100
AcDbEntity
  8
LIVELLO_1
 62
     7
100
AcDbVertex
100
AcDb2dVertex
 10
134.2862394013137
 20
-138.1579019924601
 30
0.0
  0
VERTEX
  5
74F
330
74D
100
AcDbEntity
  8
LIVELLO_1
 62
     7
100
AcDbVertex
100
AcDb2dVertex
 10
134.5407234188025
 20
-138.1579019924601
 30
0.0
  0
SEQEND
  5
750
330
74D
100
AcDbEntity
  8
LIVELLO_1
 62
     7
  0
SPLINE
  5
751
330
1F
100
AcDbEntity
  8
LIVELLO_1
 62
     7
100
AcDbSpline
210
0.0
220
0.0
230
1.0
 70
     8
 71
     3
 72
     8
 73
     4
 74
     0
 42
0.0000000001
 43
0.0000000001
 12
1.0
 22
0.0
 32
0.0
 13
1.0
 23
0.0
 33
0.0
 40
0.0
 40
0.0
 40
0.0
 40
0.0
 40
1.0
 40
1.0
 40
1.0
 40
1.0
 10
134.5407234188025
 20
-138.1579019924601
 30
0.0
 10
134.5407234188025
 20
-138.5066555891341
 30
0.0
 10
134.4803908881257
 20
-138.8272598510021
 30
0.0
 10
134.3534996499046
 20
-139.1521610518292
 30
0.0
  0
SPLINE
  5
752
330
1F
100
AcDbEntity
  8
LIVELLO_1
 62
     7
100
AcDbSpline
210
0.0
220
0.0
230
1.0
 70
     8
 71
     3
 72
     8
 73
     4
 74
     0
 42
0.0000000001
 43
0.0000000001
 12
1.0
 22
0.0
 32
0.0
 13
1.0
 23
0.0
 33
0.0
 40
0.0
 40
0.0
 40
0.0
 40
0.0
 40
1.0
 40
1.0
 40
1.0
 40
1.0
 10
129.072649362788
 20
-140.1465078038325
 30
0.0
 10
129.072649362788
 20
-139.7977542071546
 30
0.0
 10
129.1329818934712
 20
-139.4772376379208
 30
0.0
 10
129.2598731316859
 20
-139.1523364370937
 30
0.0
  0
INSERT
  5
754
330
1F
100
AcDbEntity
  8
LIVELLO_1
100
AcDbBlockReference
  2
BLOCK_2
 10
0.0
 20
0.0
 30
0.0
  0
ENDSEC
  0
SECTION
  2
OBJECTS
  0
DICTIONARY
  5
C
330
0
100
AcDbDictionary
  3
ACAD_GROUP
350
D
  3
ACAD_LAYOUT
350
1A
  3
ACAD_MATERIAL
350
3B
  3
ACAD_MLEADERSTYLE
350
7CE
  3
ACAD_MLINESTYLE
350
17
  3
ACAD_PLOTSETTINGS
350
19
  3
ACAD_VISUALSTYLE
350
2A
  3
ACDBHEADERROUNDTRIPXREC
350
7AC
  3
ACDBVARIABLEDICTIONARY
350
7CC
  0
DICTIONARY
  5
D
102
{ACAD_REACTORS
330
C
102
}
330
C
100
AcDbDictionary
  0
DICTIONARY
  5
1A
102
{ACAD_REACTORS
330
C
102
}
330
C
100
AcDbDictionary
  0
DICTIONARY
  5
3B
102
{ACAD_REACTORS
330
C
102
}
330
C
100
AcDbDictionary
  3
BYBLOCK
350
3D
  3
BYLAYER
350
3C
  3
GLOBAL
350
3E
  0
DICTIONARY
  5
7CE
102
{ACAD_REACTORS
330
C
102
}
330
C
100
AcDbDictionary
  0
DICTIONARY
  5
17
102
{ACAD_REACTORS
330
C
102
}
330
C
100
AcDbDictionary
  3
STANDARD
350
18
  0
DICTIONARY
  5
19
102
{ACAD_REACTORS
330
C
102
}
330
C
100
AcDbDictionary
  0
DICTIONARY
  5
2A
102
{ACAD_REACTORS
330
C
102
}
330
C
100
AcDbDictionary
  3
2DWIREFRAME
350
2F
  3
3DWIREFRAME
350
30
  3
3D_HIDDEN
350
31
  3
BASIC
350
32
  3
BRIGHTEN
350
36
  3
COLORCHANGE
350
3A
  3
CONCEPTUAL
350
34
  3
DIM
350
35
  3
FACEPATTERN
350
39
  3
FLAT
350
2B
  3
FLATWITHEDGES
350
2C
  3
GOURAUD
350
2D
  3
GOURAUDWITHEDGES
350
2E
  3
LINEPATTERN
350
38
  3
REALISTIC
350
33
  3
THICKEN
350
37
  0
DICTIONARY
  5
7AC
102
{ACAD_REACTORS
330
C
102
}
330
C
100
AcDbDictionary
  3
CEPSNTYPE
350
7B5
  3
DIMSTYLEDATA
350
7CB
  3
FINGERPRINTGUID
350
7B6
  3
HYPERLINKBASE
350
7AF
  3
INSUNITS
350
7B4
  3
LAYOUTDICT
350
7B1
  3
LWETCUNION
350
7B3
  3
PLOTSETDICT
350
7B2
  3
PSVPSCALE
350
7B8
  3
PUCSBASE
350
7BB
  3
PUCSORGBACK
350
7C1
  3
PUCSORGBOTTOM
350
7BD
  3
PUCSORGFRONT
350
7C0
  3
PUCSORGLEFT
350
7BE
  3
PUCSORGRIGHT
350
7BF
  3
PUCSORGTOP
350
7BC
  3
PUCSORTHOREF
350
7B9
  3
PUCSORTHOVIEW
350
7BA
  3
STYLESHEET
350
7B0
  3
TSTACKALIGN
350
7AD
  3
TSTACKSIZE
350
7AE
  3
UCSBASE
350
7C4
  3
UCSORGBACK
350
7CA
  3
UCSORGBOTTOM
350
7C6
  3
UCSORGFRONT
350
7C9
  3
UCSORGLEFT
350
7C7
  3
UCSORGRIGHT
350
7C8
  3
UCSORGTOP
350
7C5
  3
UCSORTHOREF
350
7C2
  3
UCSORTHOVIEW
350
7C3
  3
VERSIONGUID
350
7B7
  0
DICTIONARY
  5
7CC
102
{ACAD_REACTORS
330
C
102
}
330
C
100
AcDbDictionary
  3
DIMASSOC
350
7CF
  3
HIDETEXT
350
7D0
  0
MATERIAL
  5
3D
102
{ACAD_REACTORS
330
3B
102
}
102
{ACAD_XDICTIONARY
360
7D3
102
}
330
3B
100
AcDbMaterial
  1
ByBlock
  0
MATERIAL
  5
3C
102
{ACAD_REACTORS
330
3B
102
}
102
{ACAD_XDICTIONARY
360
7D1
102
}
330
3B
100
AcDbMaterial
  1
ByLayer
  0
MATERIAL
  5
3E
102
{ACAD_REACTORS
330
3B
102
}
102
{ACAD_XDICTIONARY
360
7D5
102
}
330
3B
100
AcDbMaterial
  1
Global
  0
MLINESTYLE
  5
18
102
{ACAD_REACTORS
330
17
102
}
330
17
100
AcDbMlineStyle
  2
Standard
 70
     0
  3

 62
   256
 51
90.0
 52
90.0
 71
     2
 49
0.5
 62
   256
  6
BYLAYER
 49
-0.5
 62
   256
  6
BYLAYER
  0
ACAD_PROXY_OBJECT
  5
2F
102
{ACAD_REACTORS
330
2A
102
}
330
2A
100
AcDbProxyObject
 90
      499
 91
      501
 93
      436
310
42CC9915DA5C99599C985B595049028333333333333E3BF0000000000000FB0107901411070040501600405405064090741402480A0340
1001
ACAD
1000
AcDbSavedByObjectVersion
1070
     0
  0
ACAD_PROXY_OBJECT
  5
30
102
{ACAD_REACTORS
330
2A
102
}
330
2A
100
AcDbProxyObject
 90
      499
 91
      501
 93
      436
310
42CCD915DA5C99599C985B595059028333333333333E3BF0000000000000FB0107901411070040501600405405064090741402480A0340
1001
ACAD
1000
AcDbSavedByObjectVersion
1070
     0
  0
ACAD_PROXY_OBJECT
  5
31
102
{ACAD_REACTORS
330
2A
102
}
330
2A
100
AcDbProxyObject
 90
      499
 91
      501
 93
      500
310
424CD108121A5919195B90640502408333333333333E3BF0000000000000FB01079024090700405020000000000001110200405405064090740C02480A0340
1001
ACAD
1000
AcDbSavedByObjectVersion
1070
     0
  0
ACAD_PROXY_OBJECT
  5
32
102
{ACAD_REACTORS
330
2A
102
}
330
2A
100
AcDbProxyObject
 90
      499
 91
      501
 93
      388
310
4150985CDA58D07406404333333333333E3BF0000000000000FB0107A41107004050150841D405064090741402480A0350
1001
ACAD
1000
AcDbSavedByObjectVersion
1070
     0
  0
ACAD_PROXY_OBJECT
  5
36
102
{ACAD_REACTORS
330
2A
102
}
330
2A
100
AcDbProxyObject
 90
      499
 91
      501
 93
      428
310
42109C9A59DA1D195B90C409028333333333333E3BF0000000000000FB010790141107004050150841D405064090741402480A029950
1001
ACAD
1000
AcDbSavedByObjectVersion
1070
     0
  0
ACAD_PROXY_OBJECT
  5
3A
102
{ACAD_REACTORS
330
2A
102
}
330
2A
100
AcDbProxyObject
 90
      499
 91
      501
 93
      452
310
42D0DBDB1BDC90DA185B99D95104090240C333333333333E3BF0000000000000FB0108901411070040501508421405064090741402480A0350
1001
ACAD
1000
AcDbSavedByObjectVersion
1070
     0
  0
ACAD_PROXY_OBJECT
  5
34
102
{ACAD_REACTORS
330
2A
102
}
330
2A
100
AcDbProxyObject
 90
      499
 91
      501
 93
      500
310
4290DBDB98D95C1D1D585B10940D028333333333333E3BF0000000000000FB0107902409070040501000000000000111010841D405064090740C02480A0340
1001
ACAD
1000
AcDbSavedByObjectVersion
1070
     0
  0
ACAD_PROXY_OBJECT
  5
35
102
{ACAD_REACTORS
330
2A
102
}
330
2A
100
AcDbProxyObject
 90
      499
 91
      501
 93
      412
310
40D11A5B50B409028333333333333E3BF0000000000000FB010790141107004050150841D405064090741402480A02677FFFFFD0
1001
ACAD
1000
AcDbSavedByObjectVersion
1070
     0
  0
ACAD_PROXY_OBJECT
  5
39
102
{ACAD_REACTORS
330
2A
102
}
330
2A
100
AcDbProxyObject
 90
      499
 91
      501
 93
      444
310
42D19858D95C185D1D195C9B90F409028333333333333E3BF0000000000000FB010790141107004050150841D405064090741402480A0350
1001
ACAD
1000
AcDbSavedByObjectVersion
1070
     0
  0
ACAD_PROXY_OBJECT
  5
2B
102
{ACAD_REACTORS
330
2A
102
}
330
2A
100
AcDbProxyObject
 90
      499
 91
      501
 93
      388
310
41119B185D240901404333333333333E3BF0000000000000F9010740A41107004050150841D405064090741402480A1B50
1001
ACAD
1000
AcDbSavedByObjectVersion
1070
     0
  0
ACAD_PROXY_OBJECT
  5
2C
102
{ACAD_REACTORS
330
2A
102
}
330
2A
100
AcDbProxyObject
 90
      499
 91
      501
 93
      476
310
43519B185D15DA5D1A115919D95CD0140901404333333333333E3BF0000000000000F9010740901411070040501600405405064090741402480A1B50
1001
ACAD
1000
AcDbSavedByObjectVersion
1070
     0
  0
ACAD_PROXY_OBJECT
  5
2D
102
{ACAD_REACTORS
330
2A
102
}
330
2A
100
AcDbProxyObject
 90
      499
 91
      501
 93
      412
310
41D1DBDD5C985D5910240902404333333333333E3BF0000000000000F9010740A411070040501641D405064090741402480A1B50
1001
ACAD
1000
AcDbSavedByObjectVersion
1070
     0
  0
ACAD_PROXY_OBJECT
  5
2E
102
{ACAD_REACTORS
330
2A
102
}
330
2A
100
AcDbProxyObject
 90
      499
 91
      501
 93
      500
310
4411DBDD5C985D5915DA5D1A115919D95CD0340902404333333333333E3BF0000000000000F9010740901411070040501600405405064090741402480A1B50
1001
ACAD
1000
AcDbSavedByObjectVersion
1070
     0
  0
ACAD_PROXY_OBJECT
  5
38
102
{ACAD_REACTORS
330
2A
102
}
330
2A
100
AcDbProxyObject
 90
      499
 91
      501
 93
      444
310
42D31A5B995C185D1D195C9B90E409028333333333333E3BF0000000000000FB010790141107004050750841D405064090741402483A0350
1001
ACAD
1000
AcDbSavedByObjectVersion
1070
     0
  0
ACAD_PROXY_OBJECT
  5
33
102
{ACAD_REACTORS
330
2A
102
}
330
2A
100
AcDbProxyObject
 90
      499
 91
      501
 93
      420
310
425499585B1A5CDD1A58D08409028333333333333E3BF0000000000000FB01079019070040501508421405064090741402480A1B40
1001
ACAD
1000
AcDbSavedByObjectVersion
1070
     0
  0
ACAD_PROXY_OBJECT
  5
37
102
{ACAD_REACTORS
330
2A
102
}
330
2A
100
AcDbProxyObject
 90
      499
 91
      501
 93
      412
310
41D51A1A58DAD95B90D409028333333333333E3BF0000000000000FB010790141107004050150C41D405064090741402480A0350
1001
ACAD
1000
AcDbSavedByObjectVersion
1070
     0
  0
XRECORD
  5
7B5
102
{ACAD_REACTORS
330
7AC
102
}
330
7AC
100
AcDbXrecord
 90
        0
  0
XRECORD
  5
7CB
102
{ACAD_REACTORS
330
7AC
102
}
330
7AC
100
AcDbXrecord
1000
DSTYLE
1002
{
1070
   340
340
11
1002
}
  0
XRECORD
  5
7B6
102
{ACAD_REACTORS
330
7AC
102
}
330
7AC
100
AcDbXrecord
  1
{702F64E2-DD59-0F4A-F1D8-7446CF3FCFAD}
  0
XRECORD
  5
7AF
102
{ACAD_REACTORS
330
7AC
102
}
330
7AC
100
AcDbXrecord
  1

  0
XRECORD
  5
7B4
102
{ACAD_REACTORS
330
7AC
102
}
330
7AC
100
AcDbXrecord
 90
        1
  0
XRECORD
  5
7B1
102
{ACAD_REACTORS
330
7AC
102
}
330
7AC
100
AcDbXrecord
340
1A
  0
XRECORD
  5
7B3
102
{ACAD_REACTORS
330
7AC
102
}
330
7AC
100
AcDbXrecord
 90
    10269
  0
XRECORD
  5
7B2
102
{ACAD_REACTORS
330
7AC
102
}
330
7AC
100
AcDbXrecord
340
19
  0
XRECORD
  5
7B8
102
{ACAD_REACTORS
330
7AC
102
}
330
7AC
100
AcDbXrecord
 40
0.0
  0
XRECORD
  5
7BB
102
{ACAD_REACTORS
330
7AC
102
}
330
7AC
100
AcDbXrecord
340
0
  0
XRECORD
  5
7C1
102
{ACAD_REACTORS
330
7AC
102
}
330
7AC
100
AcDbXrecord
 10
0.0
 20
0.0
 30
0.0
  0
XRECORD
  5
7BD
102
{ACAD_REACTORS
330
7AC
102
}
330
7AC
100
AcDbXrecord
 10
0.0
 20
0.0
 30
0.0
  0
XRECORD
  5
7C0
102
{ACAD_REACTORS
330
7AC
102
}
330
7AC
100
AcDbXrecord
 10
0.0
 20
0.0
 30
0.0
  0
XRECORD
  5
7BE
102
{ACAD_REACTORS
330
7AC
102
}
330
7AC
100
AcDbXrecord
 10
0.0
 20
0.0
 30
0.0
  0
XRECORD
  5
7BF
102
{ACAD_REACTORS
330
7AC
102
}
330
7AC
100
AcDbXrecord
 10
0.0
 20
0.0
 30
0.0
  0
XRECORD
  5
7BC
102
{ACAD_REACTORS
330
7AC
102
}
330
7AC
100
AcDbXrecord
 10
0.0
 20
0.0
 30
0.0
  0
XRECORD
  5
7B9
102
{ACAD_REACTORS
330
7AC
102
}
330
7AC
100
AcDbXrecord
340
0
  0
XRECORD
  5
7BA
102
{ACAD_REACTORS
330
7AC
102
}
330
7AC
100
AcDbXrecord
 70
     0
  0
XRECORD
  5
7B0
102
{ACAD_REACTORS
330
7AC
102
}
330
7AC
100
AcDbXrecord
  1

  0
XRECORD
  5
7AD
102
{ACAD_REACTORS
330
7AC
102
}
330
7AC
100
AcDbXrecord
 90
        1
  0
XRECORD
  5
7AE
102
{ACAD_REACTORS
330
7AC
102
}
330
7AC
100
AcDbXrecord
 90
       70
  0
XRECORD
  5
7C4
102
{ACAD_REACTORS
330
7AC
102
}
330
7AC
100
AcDbXrecord
340
0
  0
XRECORD
  5
7CA
102
{ACAD_REACTORS
330
7AC
102
}
330
7AC
100
AcDbXrecord
 10
0.0
 20
0.0
 30
0.0
  0
XRECORD
  5
7C6
102
{ACAD_REACTORS
330
7AC
102
}
330
7AC
100
AcDbXrecord
 10
0.0
 20
0.0
 30
0.0
  0
XRECORD
  5
7C9
102
{ACAD_REACTORS
330
7AC
102
}
330
7AC
100
AcDbXrecord
 10
0.0
 20
0.0
 30
0.0
  0
XRECORD
  5
7C7
102
{ACAD_REACTORS
330
7AC
102
}
330
7AC
100
AcDbXrecord
 10
0.0
 20
0.0
 30
0.0
  0
XRECORD
  5
7C8
102
{ACAD_REACTORS
330
7AC
102
}
330
7AC
100
AcDbXrecord
 10
0.0
 20
0.0
 30
0.0
  0
XRECORD
  5
7C5
102
{ACAD_REACTORS
330
7AC
102
}
330
7AC
100
AcDbXrecord
 10
0.0
 20
0.0
 30
0.0
  0
XRECORD
  5
7C2
102
{ACAD_REACTORS
330
7AC
102
}
330
7AC
100
AcDbXrecord
340
0
  0
XRECORD
  5
7C3
102
{ACAD_REACTORS
330
7AC
102
}
330
7AC
100
AcDbXrecord
 70
     0
  0
XRECORD
  5
7B7
102
{ACAD_REACTORS
330
7AC
102
}
330
7AC
100
AcDbXrecord
  1
{FAEB1C32-E019-11D5-929B-00C0DF256EC4}
  0
DICTIONARYVAR
  5
7CF
102
{ACAD_REACTORS
330
7CC
102
}
330
7CC
100
DictionaryVariables
280
     0
  1
2
  0
DICTIONARYVAR
  5
7D0
102
{ACAD_REACTORS
330
7CC
102
}
330
7CC
100
DictionaryVariables
280
     0
  1
1
  0
DICTIONARY
  5
7D3
330
3D
100
AcDbDictionary
280
     1
  3
ACAD_XREC_ROUNDTRIP
360
7D4
  0
DICTIONARY
  5
7D1
330
3C
100
AcDbDictionary
280
     1
  3
ACAD_XREC_ROUNDTRIP
360
7D2
  0
DICTIONARY
  5
7D5
330
3E
100
AcDbDictionary
280
     1
  3
ACAD_XREC_ROUNDTRIP
360
7D6
  0
XRECORD
  5
7D4
102
{ACAD_REACTORS
330
7D3
102
}
330
7D3
100
AcDbXrecord
102
MATERIAL
148
0.0
149
0.0
149
0.0
 93
        0
 94
      127
282
     0
 72
     1
 77
     1
171
     1
175
     1
179
     1
273
     0
  0
XRECORD
  5
7D2
102
{ACAD_REACTORS
330
7D1
102
}
330
7D1
100
AcDbXrecord
102
MATERIAL
148
0.0
149
0.0
149
0.0
 93
        0
 94
      127
282
     0
 72
     1
 77
     1
171
     1
175
     1
179
     1
273
     0
  0
XRECORD
  5
7D6
102
{ACAD_REACTORS
330
7D5
102
}
330
7D5
100
AcDbXrecord
102
MATERIAL
148
0.0
149
0.0
149
0.0
 93
        0
 94
      127
282
     0
 72
     1
 77
     1
171
     1
175
     1
179
     1
273
     0
  0
ENDSEC
  0
EOF
