  0
SECTION
  2
HEADER
  9
$ACADVER
  1
AC1009
  9
$DWGCODEPAGE
  3
mac-roman
  9
$INSBASE
 10
0.0
 20
0.0
 30
0.0
  9
$EXTMIN
 10
90.78019972222222
 20
101.8188633333333
 30
0.0
  9
$EXTMAX
 10
122.0234344444445
 20
157.006925
 30
0.0
  9
$LIMMIN
 10
0.0
 20
0.0
  9
$LIMMAX
 10
12.0
 20
9.0
  9
$ORTHOMODE
 70
     0
  9
$REGENMODE
 70
     1
  9
$FILLMODE
 70
     1
  9
$QTEXTMODE
 70
     0
  9
$MIRRTEXT
 70
     1
  9
$DRAGMODE
 70
     2
  9
$LTSCALE
 40
1.0
  9
$OSMODE
 70
    37
  9
$ATTMODE
 70
     1
  9
$TEXTSIZE
 40
0.2
  9
$TRACEWID
 40
0.05
  9
$TEXTSTYLE
  7
STANDARD
  9
$CLAYER
  8
DEFAULT
  9
$CELTYPE
  6
BYLAYER
  9
$CECOLOR
 62
   256
  9
$DIMSCALE
 40
1.0
  9
$DIMASZ
 40
0.18
  9
$DIMEXO
 40
0.0625
  9
$DIMDLI
 40
0.38
  9
$DIMRND
 40
0.0
  9
$DIMDLE
 40
0.0
  9
$DIMEXE
 40
0.18
  9
$DIMTP
 40
0.0
  9
$DIMTM
 40
0.0
  9
$DIMTXT
 40
0.18
  9
$DIMCEN
 40
0.09
  9
$DIMTSZ
 40
0.0
  9
$DIMTOL
 70
     0
  9
$DIMLIM
 70
     0
  9
$DIMTIH
 70
     1
  9
$DIMTOH
 70
     1
  9
$DIMSE1
 70
     0
  9
$DIMSE2
 70
     0
  9
$DIMTAD
 70
     0
  9
$DIMZIN
 70
     0
  9
$DIMBLK
  1

  9
$DIMASO
 70
     1
  9
$DIMSHO
 70
     1
  9
$DIMPOST
  1

  9
$DIMAPOST
  1

  9
$DIMALT
 70
     0
  9
$DIMALTD
 70
     2
  9
$DIMALTF
 40
25.4
  9
$DIMLFAC
 40
1.0
  9
$DIMTOFL
 70
     0
  9
$DIMTVP
 40
0.0
  9
$DIMTIX
 70
     0
  9
$DIMSOXD
 70
     0
  9
$DIMSAH
 70
     0
  9
$DIMBLK1
  1

  9
$DIMBLK2
  1

  9
$DIMSTYLE
  2
STANDARD
  9
$DIMCLRD
 70
     0
  9
$DIMCLRE
 70
     0
  9
$DIMCLRT
 70
     0
  9
$DIMTFAC
 40
1.0
  9
$DIMGAP
 40
0.09
  9
$LUNITS
 70
     2
  9
$LUPREC
 70
     3
  9
$SKETCHINC
 40
0.1
  9
$FILLETRAD
 40
0.5
  9
$AUNITS
 70
     0
  9
$AUPREC
 70
     0
  9
$MENU
  1
.
  9
$ELEVATION
 40
0.0
  9
$PELEVATION
 40
0.0
  9
$THICKNESS
 40
0.0
  9
$LIMCHECK
 70
     0
  9
$CHAMFERA
 40
0.0
  9
$CHAMFERB
 40
0.0
  9
$SKPOLY
 70
     0
  9
$TDCREATE
 40
2457737.610902778
  9
$TDUPDATE
 40
2457737.610949074
  9
$TDINDWG
 40
0.0000000116
  9
$TDUSRTIMER
 40
0.0000000116
  9
$USRTIMER
 70
     1
  9
$ANGBASE
 50
0.0
  9
$ANGDIR
 70
     0
  9
$PDMODE
 70
     0
  9
$PDSIZE
 40
0.0
  9
$PLINEWID
 40
0.0
  9
$COORDS
 70
     1
  9
$SPLFRAME
 70
     0
  9
$SPLINETYPE
 70
     6
  9
$SPLINESEGS
 70
     8
  9
$ATTDIA
 70
     0
  9
$ATTREQ
 70
     1
  9
$HANDLING
 70
     1
  9
$HANDSEED
  5
B05
  9
$SURFTAB1
 70
     6
  9
$SURFTAB2
 70
     6
  9
$SURFTYPE
 70
     6
  9
$SURFU
 70
     6
  9
$SURFV
 70
     6
  9
$UCSNAME
  2

  9
$UCSORG
 10
0.0
 20
0.0
 30
0.0
  9
$UCSXDIR
 10
1.0
 20
0.0
 30
0.0
  9
$UCSYDIR
 10
0.0
 20
1.0
 30
0.0
  9
$PUCSNAME
  2

  9
$PUCSORG
 10
0.0
 20
0.0
 30
0.0
  9
$PUCSXDIR
 10
1.0
 20
0.0
 30
0.0
  9
$PUCSYDIR
 10
0.0
 20
1.0
 30
0.0
  9
$USERI1
 70
     0
  9
$USERI2
 70
     0
  9
$USERI3
 70
     0
  9
$USERI4
 70
     0
  9
$USERI5
 70
     0
  9
$USERR1
 40
0.0
  9
$USERR2
 40
0.0
  9
$USERR3
 40
0.0
  9
$USERR4
 40
0.0
  9
$USERR5
 40
0.0
  9
$WORLDVIEW
 70
     1
  9
$SHADEDGE
 70
     3
  9
$SHADEDIF
 70
    70
  9
$TILEMODE
 70
     1
  9
$MAXACTVP
 70
    64
  9
$PLIMCHECK
 70
     0
  9
$PEXTMIN
 10
1.000000000000000E+20
 20
1.000000000000000E+20
 30
1.000000000000000E+20
  9
$PEXTMAX
 10
-1.000000000000000E+20
 20
-1.000000000000000E+20
 30
-1.000000000000000E+20
  9
$PLIMMIN
 10
0.0
 20
0.0
  9
$PLIMMAX
 10
12.0
 20
9.0
  9
$UNITMODE
 70
     0
  9
$VISRETAIN
 70
     1
  9
$PLINEGEN
 70
     0
  9
$PSLTSCALE
 70
     1
  0
ENDSEC
  0
SECTION
  2
TABLES
  0
TABLE
  2
VPORT
 70
     1
  0
VPORT
  2
*ACTIVE
 70
     0
 10
0.0
 20
0.0
 11
1.0
 21
1.0
 12
106.4018170833333
 22
129.4128941666667
 13
0.0
 23
0.0
 14
0.5
 24
0.5
 15
0.5
 25
0.5
 16
0.0
 26
0.0
 36
1.0
 17
0.0
 27
0.0
 37
0.0
 40
56.29182289999996
 41
0.5661230668134343
 42
50.0
 43
0.0
 44
0.0
 50
0.0
 51
0.0
 71
     0
 72
   100
 73
     1
 74
     3
 75
     0
 76
     0
 77
     0
 78
     0
  0
ENDTAB
  0
TABLE
  2
LTYPE
 70
     1
  0
LTYPE
  2
CONTINUOUS
 70
     0
  3
Solid line
 72
    65
 73
     0
 40
0.0
  0
ENDTAB
  0
TABLE
  2
LAYER
 70
     2
  0
LAYER
  2
0
 70
     0
 62
     7
  6
CONTINUOUS
  0
LAYER
  2
DEFAULT
 70
     0
 62
     7
  6
CONTINUOUS
  0
ENDTAB
  0
TABLE
  2
STYLE
 70
     1
  0
STYLE
  2
STANDARD
 70
     0
 40
0.0
 41
1.0
 50
0.0
 71
     0
 42
0.2
  3
txt
  4

  0
ENDTAB
  0
TABLE
  2
VIEW
 70
     0
  0
ENDTAB
  0
TABLE
  2
UCS
 70
     0
  0
ENDTAB
  0
TABLE
  2
APPID
 70
     1
  0
APPID
  2
ACAD
 70
     0
  0
ENDTAB
  0
TABLE
  2
DIMSTYLE
 70
     1
  0
DIMSTYLE
  2
STANDARD
 70
     0
  3

  4

  5

  6

  7

 40
1.0
 41
0.18
 42
0.0625
 43
0.38
 44
0.18
 45
0.0
 46
0.0
 47
0.0
 48
0.0
140
0.18
141
0.09
142
0.0
143
25.4
144
1.0
145
0.0
146
1.0
147
0.09
 71
     0
 72
     0
 73
     1
 74
     1
 75
     0
 76
     0
 77
     0
 78
     0
170
     0
171
     2
172
     0
173
     0
174
     0
175
     0
176
     0
177
     0
178
     0
  0
ENDTAB
  0
ENDSEC
  0
SECTION
  2
BLOCKS
  0
BLOCK
  8
0
  2
$MODEL_SPACE
 70
     0
 10
0.0
 20
0.0
 30
0.0
  3
$MODEL_SPACE
  1

  0
ENDBLK
  5
21
  8
0
  0
BLOCK
 67
     1
  8
0
  2
$PAPER_SPACE
 70
     0
 10
0.0
 20
0.0
 30
0.0
  3
$PAPER_SPACE
  1

  0
ENDBLK
  5
1D
 67
     1
  8
0
  0
ENDSEC
  0
SECTION
  2
ENTITIES
  0
POLYLINE
  5
6F
  8
DEFAULT
 62
   178
 66
     1
 10
0.0
 20
0.0
 30
0.0
  0
VERTEX
  5
70
  8
DEFAULT
 62
   178
 10
111.9810152777778
 20
152.0483158333333
 30
0.0
  0
VERTEX
  5
71
  8
DEFAULT
 62
   178
 10
112.0371069444444
 20
151.9184936111111
 30
0.0
  0
VERTEX
  5
72
  8
DEFAULT
 62
   178
 10
112.0328736111111
 20
151.9269602777778
 30
0.0
  0
VERTEX
  5
73
  8
DEFAULT
 62
   178
 10
112.0102958333333
 20
151.9717630555556
 30
0.0
  0
VERTEX
  5
74
  8
DEFAULT
 62
   178
 10
111.9848958333333
 20
152.0479630555556
 30
0.0
  0
VERTEX
  5
75
  8
DEFAULT
 62
   178
 10
112.0371069444444
 20
151.9184936111111
 30
0.0
  0
VERTEX
  5
76
  8
DEFAULT
 62
   178
 10
112.0977847222222
 20
151.8274769444444
 30
0.0
  0
VERTEX
  5
77
  8
DEFAULT
 62
   178
 10
112.1588152777778
 20
151.7286991666666
 30
0.0
  0
VERTEX
  5
78
  8
DEFAULT
 62
   178
 10
112.2346625
 20
151.6450908333333
 30
0.0
  0
VERTEX
  5
79
  8
DEFAULT
 62
   178
 10
112.3105097222222
 20
151.5695963888889
 30
0.0
  0
VERTEX
  5
7A
  8
DEFAULT
 62
   178
 10
112.4018791666666
 20
151.4933963888889
 30
0.0
  0
VERTEX
  5
7B
  8
DEFAULT
 62
   178
 10
112.4928958333333
 20
151.4253102777778
 30
0.0
  0
VERTEX
  5
7C
  8
DEFAULT
 62
   178
 10
112.5916736111111
 20
151.3720408333333
 30
0.0
  0
VERTEX
  5
7D
  8
DEFAULT
 62
   178
 10
112.6904513888889
 20
151.3191241666667
 30
0.0
  0
VERTEX
  5
7E
  8
DEFAULT
 62
   178
 10
112.7966375
 20
151.2810241666667
 30
0.0
  0
VERTEX
  5
7F
  8
DEFAULT
 62
   178
 10
112.9031763888889
 20
151.2432769444444
 30
0.0
  0
VERTEX
  5
80
  8
DEFAULT
 62
   178
 10
113.0171236111111
 20
151.2203463888889
 30
0.0
  0
VERTEX
  5
81
  8
DEFAULT
 62
   178
 10
113.1310708333333
 20
151.2055297222222
 30
0.0
  0
VERTEX
  5
82
  8
DEFAULT
 62
   178
 10
113.2372569444444
 20
151.2055297222222
 30
0.0
  0
VERTEX
  5
83
  8
DEFAULT
 62
   178
 10
113.3512041666666
 20
151.2051769444444
 30
0.0
  0
VERTEX
  5
84
  8
DEFAULT
 62
   178
 10
113.4651513888889
 20
151.2206991666667
 30
0.0
  0
VERTEX
  5
85
  8
DEFAULT
 62
   178
 10
113.5790986111111
 20
151.2436297222222
 30
0.0
  0
VERTEX
  5
86
  8
DEFAULT
 62
   178
 10
113.6852847222222
 20
151.2813769444444
 30
0.0
  0
VERTEX
  5
87
  8
DEFAULT
 62
   178
 10
113.7918236111111
 20
151.3194769444444
 30
0.0
  0
VERTEX
  5
88
  8
DEFAULT
 62
   178
 10
113.8902486111111
 20
151.3727463888889
 30
0.0
  0
VERTEX
  5
89
  8
DEFAULT
 62
   178
 10
113.9890263888889
 20
151.4260158333333
 30
0.0
  0
VERTEX
  5
8A
  8
DEFAULT
 62
   178
 10
114.0800430555555
 20
151.4941019444444
 30
0.0
  0
VERTEX
  5
8B
  8
DEFAULT
 62
   178
 10
114.1636513888889
 20
151.5703019444444
 30
0.0
  0
VERTEX
  5
8C
  8
DEFAULT
 62
   178
 10
114.2472597222222
 20
151.6461491666667
 30
0.0
  0
VERTEX
  5
8D
  8
DEFAULT
 62
   178
 10
114.3231069444444
 20
151.7301102777778
 30
0.0
  0
VERTEX
  5
8E
  8
DEFAULT
 62
   178
 10
114.3837847222222
 20
151.8285352777778
 30
0.0
  0
VERTEX
  5
8F
  8
DEFAULT
 62
   178
 10
114.4444625
 20
151.9199047222222
 30
0.0
  0
VERTEX
  5
90
  8
DEFAULT
 62
   178
 10
114.4899708333333
 20
152.0264436111111
 30
0.0
  0
VERTEX
  5
91
  8
DEFAULT
 62
   178
 10
114.5354791666666
 20
152.1326297222222
 30
0.0
  0
VERTEX
  5
92
  8
DEFAULT
 62
   178
 10
114.5658180555555
 20
152.2388158333333
 30
0.0
  0
VERTEX
  5
93
  8
DEFAULT
 62
   178
 10
114.5883958333333
 20
152.3453547222222
 30
0.0
  0
VERTEX
  5
94
  8
DEFAULT
 62
   178
 10
114.6035652777778
 20
152.4593019444444
 30
0.0
  0
VERTEX
  5
95
  8
DEFAULT
 62
   178
 10
114.6109736111111
 20
152.5732491666667
 30
0.0
  0
SEQEND
  5
96
  8
DEFAULT
 62
   178
  0
POLYLINE
  5
97
  8
DEFAULT
 62
   178
 66
     1
 10
0.0
 20
0.0
 30
0.0
  0
VERTEX
  5
98
  8
DEFAULT
 62
   178
 10
108.89996
 20
152.5698272222222
 30
0.0
  0
VERTEX
  5
99
  8
DEFAULT
 62
   178
 10
108.89996
 20
152.45588
 30
0.0
  0
VERTEX
  5
9A
  8
DEFAULT
 62
   178
 10
108.9151294444444
 20
152.3419327777778
 30
0.0
  0
VERTEX
  5
9B
  8
DEFAULT
 62
   178
 10
108.93806
 20
152.2357466666666
 30
0.0
  0
VERTEX
  5
9C
  8
DEFAULT
 62
   178
 10
108.9687516666666
 20
152.1295605555555
 30
0.0
  0
VERTEX
  5
9D
  8
DEFAULT
 62
   178
 10
109.0139072222222
 20
152.0233744444444
 30
0.0
  0
VERTEX
  5
9E
  8
DEFAULT
 62
   178
 10
109.0597683333333
 20
151.9168355555555
 30
0.0
  0
VERTEX
  5
9F
  8
DEFAULT
 62
   178
 10
109.1204461111111
 20
151.8258188888889
 30
0.0
  0
VERTEX
  5
A0
  8
DEFAULT
 62
   178
 10
109.188885
 20
151.7270411111111
 30
0.0
  0
VERTEX
  5
A1
  8
DEFAULT
 62
   178
 10
109.2573238888889
 20
151.6434327777778
 30
0.0
  0
VERTEX
  5
A2
  8
DEFAULT
 62
   178
 10
109.4245405555556
 20
151.4917383333333
 30
0.0
  0
VERTEX
  5
A3
  8
DEFAULT
 62
   178
 10
109.51591
 20
151.4236522222222
 30
0.0
  0
VERTEX
  5
A4
  8
DEFAULT
 62
   178
 10
109.614335
 20
151.3703827777778
 30
0.0
  0
VERTEX
  5
A5
  8
DEFAULT
 62
   178
 10
109.7131127777778
 20
151.3171133333333
 30
0.0
  0
VERTEX
  5
A6
  8
DEFAULT
 62
   178
 10
109.8196516666667
 20
151.2793661111111
 30
0.0
  0
VERTEX
  5
A7
  8
DEFAULT
 62
   178
 10
109.9335988888889
 20
151.2416188888889
 30
0.0
  0
VERTEX
  5
A8
  8
DEFAULT
 62
   178
 10
110.039785
 20
151.2186883333333
 30
0.0
  0
VERTEX
  5
A9
  8
DEFAULT
 62
   178
 10
110.1537322222222
 20
151.2035188888889
 30
0.0
  0
VERTEX
  5
AA
  8
DEFAULT
 62
   178
 10
110.3816266666666
 20
151.2035188888889
 30
0.0
  0
VERTEX
  5
AB
  8
DEFAULT
 62
   178
 10
110.4881655555555
 20
151.2190411111111
 30
0.0
  0
VERTEX
  5
AC
  8
DEFAULT
 62
   178
 10
110.60176
 20
151.2419716666666
 30
0.0
  0
VERTEX
  5
AD
  8
DEFAULT
 62
   178
 10
110.7079461111111
 20
151.2797188888889
 30
0.0
  0
VERTEX
  5
AE
  8
DEFAULT
 62
   178
 10
110.814485
 20
151.3178188888889
 30
0.0
  0
VERTEX
  5
AF
  8
DEFAULT
 62
   178
 10
111.0120405555555
 20
151.4243577777778
 30
0.0
  0
VERTEX
  5
B0
  8
DEFAULT
 62
   178
 10
111.1030572222222
 20
151.4927966666667
 30
0.0
  0
VERTEX
  5
B1
  8
DEFAULT
 62
   178
 10
111.1940738888889
 20
151.5686438888889
 30
0.0
  0
VERTEX
  5
B2
  8
DEFAULT
 62
   178
 10
111.2699211111111
 20
151.6444911111111
 30
0.0
  0
VERTEX
  5
B3
  8
DEFAULT
 62
   178
 10
111.3457683333333
 20
151.7284522222222
 30
0.0
  0
VERTEX
  5
B4
  8
DEFAULT
 62
   178
 10
111.4142072222222
 20
151.8268772222222
 30
0.0
  0
VERTEX
  5
B5
  8
DEFAULT
 62
   178
 10
111.4671238888889
 20
151.9182466666667
 30
0.0
  0
VERTEX
  5
B6
  8
DEFAULT
 62
   178
 10
111.5203933333333
 20
152.0247855555555
 30
0.0
  0
VERTEX
  5
B7
  8
DEFAULT
 62
   178
 10
111.5549655555555
 20
152.0276077777778
 30
0.0
  0
VERTEX
  5
B8
  8
DEFAULT
 62
   178
 10
112.0181627777778
 20
152.0276077777778
 30
0.0
  0
SEQEND
  5
B9
  8
DEFAULT
 62
   178
  0
POLYLINE
  5
BA
  8
DEFAULT
 62
     7
 66
     1
 10
0.0
 20
0.0
 30
0.0
 70
     1
  0
VERTEX
  5
BB
  8
DEFAULT
 62
     7
 10
100.2957805555556
 20
150.7564083333333
 30
0.0
  0
VERTEX
  5
BC
  8
DEFAULT
 62
     7
 10
99.91619166666665
 20
150.7564083333333
 30
0.0
  0
VERTEX
  5
BD
  8
DEFAULT
 62
     7
 10
99.91619166666665
 20
150.460075
 30
0.0
  0
VERTEX
  5
BE
  8
DEFAULT
 62
     7
 10
100.2957805555556
 20
150.460075
 30
0.0
  0
SEQEND
  5
BF
  8
DEFAULT
 62
     7
  0
POLYLINE
  5
C0
  8
DEFAULT
 62
     7
 66
     1
 10
0.0
 20
0.0
 30
0.0
 70
     1
  0
VERTEX
  5
C1
  8
DEFAULT
 62
     7
 10
99.91619166666665
 20
150.4604277777778
 30
0.0
  0
VERTEX
  5
C2
  8
DEFAULT
 62
     7
 10
100.2957805555556
 20
150.4604277777778
 30
0.0
  0
VERTEX
  5
C3
  8
DEFAULT
 62
     7
 10
100.2957805555556
 20
150.7567611111111
 30
0.0
  0
VERTEX
  5
C4
  8
DEFAULT
 62
     7
 10
99.91619166666665
 20
150.7567611111111
 30
0.0
  0
SEQEND
  5
C5
  8
DEFAULT
 62
     7
  0
POLYLINE
  5
C6
  8
DEFAULT
 62
     7
 66
     1
 10
0.0
 20
0.0
 30
0.0
 70
     1
  0
VERTEX
  5
C7
  8
DEFAULT
 62
     7
 10
99.91619166666665
 20
151.5766166666666
 30
0.0
  0
VERTEX
  5
C8
  8
DEFAULT
 62
     7
 10
100.2957805555556
 20
151.5766166666666
 30
0.0
  0
VERTEX
  5
C9
  8
DEFAULT
 62
     7
 10
100.2957805555556
 20
151.87295
 30
0.0
  0
VERTEX
  5
CA
  8
DEFAULT
 62
     7
 10
99.91619166666665
 20
151.87295
 30
0.0
  0
SEQEND
  5
CB
  8
DEFAULT
 62
     7
  0
POLYLINE
  5
CC
  8
DEFAULT
 62
     7
 66
     1
 10
0.0
 20
0.0
 30
0.0
 70
     1
  0
VERTEX
  5
CD
  8
DEFAULT
 62
     7
 10
100.2957805555556
 20
151.5766166666666
 30
0.0
  0
VERTEX
  5
CE
  8
DEFAULT
 62
     7
 10
99.91619166666665
 20
151.5766166666666
 30
0.0
  0
VERTEX
  5
CF
  8
DEFAULT
 62
     7
 10
99.91619166666665
 20
150.7564083333333
 30
0.0
  0
VERTEX
  5
D0
  8
DEFAULT
 62
     7
 10
100.2957805555556
 20
150.7564083333333
 30
0.0
  0
SEQEND
  5
D1
  8
DEFAULT
 62
     7
  0
POLYLINE
  5
D2
  8
DEFAULT
 62
     7
 66
     1
 10
0.0
 20
0.0
 30
0.0
 70
     1
  0
VERTEX
  5
D3
  8
DEFAULT
 62
     7
 10
100.2957805555556
 20
151.87295
 30
0.0
  0
VERTEX
  5
D4
  8
DEFAULT
 62
     7
 10
99.91619166666665
 20
151.87295
 30
0.0
  0
VERTEX
  5
D5
  8
DEFAULT
 62
     7
 10
99.91619166666665
 20
151.5769694444444
 30
0.0
  0
VERTEX
  5
D6
  8
DEFAULT
 62
     7
 10
100.2957805555556
 20
151.5769694444444
 30
0.0
  0
SEQEND
  5
D7
  8
DEFAULT
 62
     7
  0
POLYLINE
  5
D8
  8
DEFAULT
 62
     7
 66
     1
 10
0.0
 20
0.0
 30
0.0
 70
     1
  0
VERTEX
  5
D9
  8
DEFAULT
 62
     7
 10
99.91619166666665
 20
151.5766166666666
 30
0.0
  0
VERTEX
  5
DA
  8
DEFAULT
 62
     7
 10
100.2957805555556
 20
151.5766166666666
 30
0.0
  0
VERTEX
  5
DB
  8
DEFAULT
 62
     7
 10
100.2957805555556
 20
151.87295
 30
0.0
  0
VERTEX
  5
DC
  8
DEFAULT
 62
     7
 10
99.91619166666665
 20
151.87295
 30
0.0
  0
SEQEND
  5
DD
  8
DEFAULT
 62
     7
  0
POLYLINE
  5
DE
  8
DEFAULT
 62
     7
 66
     1
 10
0.0
 20
0.0
 30
0.0
 70
     1
  0
VERTEX
  5
DF
  8
DEFAULT
 62
     7
 10
100.0147577777778
 20
155.3283730555555
 30
0.0
  0
VERTEX
  5
E0
  8
DEFAULT
 62
     7
 10
96.80236333333332
 20
155.3283730555555
 30
0.0
  0
VERTEX
  5
E1
  8
DEFAULT
 62
     7
 10
96.77202444444443
 20
155.3132036111111
 30
0.0
  0
VERTEX
  5
E2
  8
DEFAULT
 62
     7
 10
96.74909388888888
 20
155.2980341666666
 30
0.0
  0
VERTEX
  5
E3
  8
DEFAULT
 62
     7
 10
96.73392444444443
 20
155.2751036111111
 30
0.0
  0
VERTEX
  5
E4
  8
DEFAULT
 62
     7
 10
96.71875499999997
 20
155.2447647222222
 30
0.0
  0
VERTEX
  5
E5
  8
DEFAULT
 62
     7
 10
96.71875499999997
 20
149.4655591666667
 30
0.0
  0
VERTEX
  5
E6
  8
DEFAULT
 62
     7
 10
96.73392444444443
 20
149.4352202777778
 30
0.0
  0
VERTEX
  5
E7
  8
DEFAULT
 62
     7
 10
96.74909388888888
 20
149.4122897222222
 30
0.0
  0
VERTEX
  5
E8
  8
DEFAULT
 62
     7
 10
96.77202444444443
 20
149.3971202777778
 30
0.0
  0
VERTEX
  5
E9
  8
DEFAULT
 62
     7
 10
96.80236333333332
 20
149.3819508333333
 30
0.0
  0
VERTEX
  5
EA
  8
DEFAULT
 62
     7
 10
100.0450966666667
 20
149.3819508333333
 30
0.0
  0
VERTEX
  5
EB
  8
DEFAULT
 62
     7
 10
100.0754355555555
 20
149.3971202777778
 30
0.0
  0
VERTEX
  5
EC
  8
DEFAULT
 62
     7
 10
100.0983661111111
 20
149.4122897222222
 30
0.0
  0
VERTEX
  5
ED
  8
DEFAULT
 62
     7
 10
100.1212966666667
 20
149.4352202777778
 30
0.0
  0
VERTEX
  5
EE
  8
DEFAULT
 62
     7
 10
100.128705
 20
149.4655591666667
 30
0.0
  0
VERTEX
  5
EF
  8
DEFAULT
 62
     7
 10
100.1364661111111
 20
149.4958980555555
 30
0.0
  0
VERTEX
  5
F0
  8
DEFAULT
 62
     7
 10
100.1364661111111
 20
150.3616147222222
 30
0.0
  0
VERTEX
  5
F1
  8
DEFAULT
 62
     7
 10
99.54379944444443
 20
150.2099202777778
 30
0.0
  0
VERTEX
  5
F2
  8
DEFAULT
 62
     7
 10
99.54379944444443
 20
152.1159786111111
 30
0.0
  0
VERTEX
  5
F3
  8
DEFAULT
 62
     7
 10
100.1364661111111
 20
151.9716925
 30
0.0
  0
VERTEX
  5
F4
  8
DEFAULT
 62
     7
 10
100.1364661111111
 20
155.2144258333333
 30
0.0
  0
VERTEX
  5
F5
  8
DEFAULT
 62
     7
 10
100.128705
 20
155.2447647222222
 30
0.0
  0
VERTEX
  5
F6
  8
DEFAULT
 62
     7
 10
100.1212966666667
 20
155.2751036111111
 30
0.0
  0
VERTEX
  5
F7
  8
DEFAULT
 62
     7
 10
100.0983661111111
 20
155.2980341666666
 30
0.0
  0
VERTEX
  5
F8
  8
DEFAULT
 62
     7
 10
100.0754355555555
 20
155.3132036111111
 30
0.0
  0
VERTEX
  5
F9
  8
DEFAULT
 62
     7
 10
100.0450966666667
 20
155.3283730555555
 30
0.0
  0
SEQEND
  5
FA
  8
DEFAULT
 62
     7
  0
POLYLINE
  5
FB
  8
DEFAULT
 62
     7
 66
     1
 10
0.0
 20
0.0
 30
0.0
 70
     1
  0
VERTEX
  5
FC
  8
DEFAULT
 62
     7
 10
100.2957805555556
 20
151.5766166666666
 30
0.0
  0
VERTEX
  5
FD
  8
DEFAULT
 62
     7
 10
99.91619166666665
 20
151.5766166666666
 30
0.0
  0
VERTEX
  5
FE
  8
DEFAULT
 62
     7
 10
99.91619166666665
 20
150.7564083333333
 30
0.0
  0
VERTEX
  5
FF
  8
DEFAULT
 62
     7
 10
100.2957805555556
 20
150.7564083333333
 30
0.0
  0
SEQEND
  5
100
  8
DEFAULT
 62
     7
  0
POLYLINE
  5
101
  8
DEFAULT
 62
     7
 66
     1
 10
0.0
 20
0.0
 30
0.0
 70
     1
  0
VERTEX
  5
102
  8
DEFAULT
 62
     7
 10
100.2957805555556
 20
151.5766166666666
 30
0.0
  0
VERTEX
  5
103
  8
DEFAULT
 62
     7
 10
99.91619166666665
 20
151.5766166666666
 30
0.0
  0
VERTEX
  5
104
  8
DEFAULT
 62
     7
 10
99.91619166666665
 20
150.7564083333333
 30
0.0
  0
VERTEX
  5
105
  8
DEFAULT
 62
     7
 10
100.2957805555556
 20
150.7564083333333
 30
0.0
  0
SEQEND
  5
106
  8
DEFAULT
 62
     7
  0
POLYLINE
  5
107
  8
DEFAULT
 62
     7
 66
     1
 10
0.0
 20
0.0
 30
0.0
 70
     1
  0
VERTEX
  5
108
  8
DEFAULT
 62
     7
 10
100.2957805555556
 20
151.87295
 30
0.0
  0
VERTEX
  5
109
  8
DEFAULT
 62
     7
 10
99.91619166666665
 20
151.87295
 30
0.0
  0
VERTEX
  5
10A
  8
DEFAULT
 62
     7
 10
99.91619166666665
 20
151.5769694444444
 30
0.0
  0
VERTEX
  5
10B
  8
DEFAULT
 62
     7
 10
100.2957805555556
 20
151.5769694444444
 30
0.0
  0
SEQEND
  5
10C
  8
DEFAULT
 62
     7
  0
POLYLINE
  5
10D
  8
DEFAULT
 62
     7
 66
     1
 10
0.0
 20
0.0
 30
0.0
 70
     1
  0
VERTEX
  5
10E
  8
DEFAULT
 62
     7
 10
99.91619166666665
 20
151.5766166666666
 30
0.0
  0
VERTEX
  5
10F
  8
DEFAULT
 62
     7
 10
100.2957805555556
 20
151.5766166666666
 30
0.0
  0
VERTEX
  5
110
  8
DEFAULT
 62
     7
 10
100.2957805555556
 20
151.87295
 30
0.0
  0
VERTEX
  5
111
  8
DEFAULT
 62
     7
 10
99.91619166666665
 20
151.87295
 30
0.0
  0
SEQEND
  5
112
  8
DEFAULT
 62
     7
  0
POLYLINE
  5
113
  8
DEFAULT
 62
     7
 66
     1
 10
0.0
 20
0.0
 30
0.0
 70
     1
  0
VERTEX
  5
114
  8
DEFAULT
 62
     7
 10
100.0147577777778
 20
155.3283730555555
 30
0.0
  0
VERTEX
  5
115
  8
DEFAULT
 62
     7
 10
96.80236333333332
 20
155.3283730555555
 30
0.0
  0
VERTEX
  5
116
  8
DEFAULT
 62
     7
 10
96.77202444444443
 20
155.3132036111111
 30
0.0
  0
VERTEX
  5
117
  8
DEFAULT
 62
     7
 10
96.74909388888888
 20
155.2980341666666
 30
0.0
  0
VERTEX
  5
118
  8
DEFAULT
 62
     7
 10
96.73392444444443
 20
155.2751036111111
 30
0.0
  0
VERTEX
  5
119
  8
DEFAULT
 62
     7
 10
96.71875499999997
 20
155.2447647222222
 30
0.0
  0
VERTEX
  5
11A
  8
DEFAULT
 62
     7
 10
96.71875499999997
 20
149.4655591666667
 30
0.0
  0
VERTEX
  5
11B
  8
DEFAULT
 62
     7
 10
96.73392444444443
 20
149.4352202777778
 30
0.0
  0
VERTEX
  5
11C
  8
DEFAULT
 62
     7
 10
96.74909388888888
 20
149.4122897222222
 30
0.0
  0
VERTEX
  5
11D
  8
DEFAULT
 62
     7
 10
96.77202444444443
 20
149.3971202777778
 30
0.0
  0
VERTEX
  5
11E
  8
DEFAULT
 62
     7
 10
96.80236333333332
 20
149.3819508333333
 30
0.0
  0
VERTEX
  5
11F
  8
DEFAULT
 62
     7
 10
100.0450966666667
 20
149.3819508333333
 30
0.0
  0
VERTEX
  5
120
  8
DEFAULT
 62
     7
 10
100.0754355555555
 20
149.3971202777778
 30
0.0
  0
VERTEX
  5
121
  8
DEFAULT
 62
     7
 10
100.0983661111111
 20
149.4122897222222
 30
0.0
  0
VERTEX
  5
122
  8
DEFAULT
 62
     7
 10
100.1212966666667
 20
149.4352202777778
 30
0.0
  0
VERTEX
  5
123
  8
DEFAULT
 62
     7
 10
100.128705
 20
149.4655591666667
 30
0.0
  0
VERTEX
  5
124
  8
DEFAULT
 62
     7
 10
100.1364661111111
 20
149.4958980555555
 30
0.0
  0
VERTEX
  5
125
  8
DEFAULT
 62
     7
 10
100.1364661111111
 20
150.3616147222222
 30
0.0
  0
VERTEX
  5
126
  8
DEFAULT
 62
     7
 10
99.54379944444443
 20
150.2099202777778
 30
0.0
  0
VERTEX
  5
127
  8
DEFAULT
 62
     7
 10
99.54379944444443
 20
152.1159786111111
 30
0.0
  0
VERTEX
  5
128
  8
DEFAULT
 62
     7
 10
100.1364661111111
 20
151.9716925
 30
0.0
  0
VERTEX
  5
129
  8
DEFAULT
 62
     7
 10
100.1364661111111
 20
155.2144258333333
 30
0.0
  0
VERTEX
  5
12A
  8
DEFAULT
 62
     7
 10
100.128705
 20
155.2447647222222
 30
0.0
  0
VERTEX
  5
12B
  8
DEFAULT
 62
     7
 10
100.1212966666667
 20
155.2751036111111
 30
0.0
  0
VERTEX
  5
12C
  8
DEFAULT
 62
     7
 10
100.0983661111111
 20
155.2980341666666
 30
0.0
  0
VERTEX
  5
12D
  8
DEFAULT
 62
     7
 10
100.0754355555555
 20
155.3132036111111
 30
0.0
  0
VERTEX
  5
12E
  8
DEFAULT
 62
     7
 10
100.0450966666667
 20
155.3283730555555
 30
0.0
  0
SEQEND
  5
12F
  8
DEFAULT
 62
     7
  0
POLYLINE
  5
130
  8
DEFAULT
 62
     7
 66
     1
 10
0.0
 20
0.0
 30
0.0
 70
     1
  0
VERTEX
  5
131
  8
DEFAULT
 62
     7
 10
96.59732888888888
 20
155.3283730555555
 30
0.0
  0
VERTEX
  5
132
  8
DEFAULT
 62
     7
 10
93.38493444444444
 20
155.3283730555555
 30
0.0
  0
VERTEX
  5
133
  8
DEFAULT
 62
     7
 10
93.35459555555555
 20
155.3132036111111
 30
0.0
  0
VERTEX
  5
134
  8
DEFAULT
 62
     7
 10
93.331665
 20
155.2980341666666
 30
0.0
  0
VERTEX
  5
135
  8
DEFAULT
 62
     7
 10
93.30908722222222
 20
155.2751036111111
 30
0.0
  0
VERTEX
  5
136
  8
DEFAULT
 62
     7
 10
93.293565
 20
155.2144258333333
 30
0.0
  0
VERTEX
  5
137
  8
DEFAULT
 62
     7
 10
93.293565
 20
151.9110147222222
 30
0.0
  0
VERTEX
  5
138
  8
DEFAULT
 62
     7
 10
92.76228166666667
 20
152.1159786111111
 30
0.0
  0
VERTEX
  5
139
  8
DEFAULT
 62
     7
 10
92.76228166666667
 20
150.2099202777778
 30
0.0
  0
VERTEX
  5
13A
  8
DEFAULT
 62
     7
 10
93.293565
 20
150.4222925
 30
0.0
  0
VERTEX
  5
13B
  8
DEFAULT
 62
     7
 10
93.293565
 20
149.4958980555555
 30
0.0
  0
VERTEX
  5
13C
  8
DEFAULT
 62
     7
 10
93.30908722222222
 20
149.4352202777778
 30
0.0
  0
VERTEX
  5
13D
  8
DEFAULT
 62
     7
 10
93.331665
 20
149.4122897222222
 30
0.0
  0
VERTEX
  5
13E
  8
DEFAULT
 62
     7
 10
93.35459555555555
 20
149.3971202777778
 30
0.0
  0
VERTEX
  5
13F
  8
DEFAULT
 62
     7
 10
93.38493444444444
 20
149.3819508333333
 30
0.0
  0
VERTEX
  5
140
  8
DEFAULT
 62
     7
 10
96.62766777777779
 20
149.3819508333333
 30
0.0
  0
VERTEX
  5
141
  8
DEFAULT
 62
     7
 10
96.65800666666668
 20
149.3971202777778
 30
0.0
  0
VERTEX
  5
142
  8
DEFAULT
 62
     7
 10
96.68093722222223
 20
149.4122897222222
 30
0.0
  0
VERTEX
  5
143
  8
DEFAULT
 62
     7
 10
96.703515
 20
149.4352202777778
 30
0.0
  0
VERTEX
  5
144
  8
DEFAULT
 62
     7
 10
96.7112761111111
 20
149.4655591666667
 30
0.0
  0
VERTEX
  5
145
  8
DEFAULT
 62
     7
 10
96.71868444444445
 20
149.4958980555555
 30
0.0
  0
VERTEX
  5
146
  8
DEFAULT
 62
     7
 10
96.71868444444445
 20
155.2144258333333
 30
0.0
  0
VERTEX
  5
147
  8
DEFAULT
 62
     7
 10
96.7112761111111
 20
155.2447647222222
 30
0.0
  0
VERTEX
  5
148
  8
DEFAULT
 62
     7
 10
96.703515
 20
155.2751036111111
 30
0.0
  0
VERTEX
  5
149
  8
DEFAULT
 62
     7
 10
96.68093722222223
 20
155.2980341666666
 30
0.0
  0
VERTEX
  5
14A
  8
DEFAULT
 62
     7
 10
96.65800666666668
 20
155.3132036111111
 30
0.0
  0
VERTEX
  5
14B
  8
DEFAULT
 62
     7
 10
96.62766777777779
 20
155.3283730555555
 30
0.0
  0
SEQEND
  5
14C
  8
DEFAULT
 62
     7
  0
LINE
  5
14D
  8
DEFAULT
 62
   178
 10
91.39533833333333
 20
148.6531825
 30
0.0
 11
121.3701605555555
 21
148.6531825
 31
0.0
  0
LINE
  5
14E
  8
DEFAULT
 62
   178
 10
121.6663175
 20
148.6453508333334
 30
0.0
 11
121.3703369444444
 21
148.6531119444444
 31
0.0
  0
LINE
  5
14F
  8
DEFAULT
 62
   178
 10
91.39533833333333
 20
148.6531825
 30
0.0
 11
91.09900499999999
 21
148.6454213888889
 31
0.0
  0
LINE
  5
150
  8
DEFAULT
 62
   178
 10
110.13059
 20
103.7173722222222
 30
0.0
 11
110.1379983333333
 21
103.81615
 31
0.0
  0
LINE
  5
151
  8
DEFAULT
 62
   178
 10
100.3110558333333
 20
103.3148527777778
 30
0.0
 11
100.3110558333333
 21
103.5349861111111
 31
0.0
  0
LINE
  5
152
  8
DEFAULT
 62
   178
 10
112.4848172222222
 20
103.5350566666667
 30
0.0
 11
112.4848172222222
 21
103.3149233333333
 31
0.0
  0
LINE
  5
153
  8
DEFAULT
 62
   178
 10
100.3110558333333
 20
103.3148527777777
 30
0.0
 11
100.2729558333333
 21
103.2845138888889
 31
0.0
  0
LINE
  5
154
  8
DEFAULT
 62
   178
 10
100.2730616666667
 20
103.5350566666667
 30
0.0
 11
100.2730616666667
 21
103.2845844444444
 31
0.0
  0
LINE
  5
155
  8
DEFAULT
 62
   178
 10
112.5303961111111
 20
103.2844080555555
 30
0.0
 11
112.4848877777778
 21
103.3147469444445
 31
0.0
  0
LINE
  5
156
  8
DEFAULT
 62
   178
 10
112.5303961111111
 20
103.2844080555555
 30
0.0
 11
112.5303961111111
 21
103.5348802777778
 31
0.0
  0
LINE
  5
157
  8
DEFAULT
 62
   178
 10
100.9717027777778
 20
102.4111772222222
 30
0.0
 11
101.0098027777778
 21
102.4415161111111
 31
0.0
  0
LINE
  5
158
  8
DEFAULT
 62
   178
 10
111.7861408333333
 20
102.4414808333333
 30
0.0
 11
111.8238880555555
 21
102.4111419444444
 31
0.0
  0
POLYLINE
  5
159
  8
DEFAULT
 62
   178
 66
     1
 10
0.0
 20
0.0
 30
0.0
  0
VERTEX
  5
15A
  8
DEFAULT
 62
   178
 10
100.9717027777778
 20
102.4111772222222
 30
0.0
  0
VERTEX
  5
15B
  8
DEFAULT
 62
   178
 10
101.4578305555556
 20
102.3049911111111
 30
0.0
  0
VERTEX
  5
15C
  8
DEFAULT
 62
   178
 10
101.9513666666666
 20
102.2136216666667
 30
0.0
  0
VERTEX
  5
15D
  8
DEFAULT
 62
   178
 10
102.4374944444444
 20
102.1303661111111
 30
0.0
  0
VERTEX
  5
15E
  8
DEFAULT
 62
   178
 10
102.9310305555555
 20
102.0619272222222
 30
0.0
  0
VERTEX
  5
15F
  8
DEFAULT
 62
   178
 10
103.4249194444444
 20
101.9934883333333
 30
0.0
  0
VERTEX
  5
160
  8
DEFAULT
 62
   178
 10
103.9184555555556
 20
101.9402188888889
 30
0.0
  0
VERTEX
  5
161
  8
DEFAULT
 62
   178
 10
104.4119916666667
 20
101.8947105555555
 30
0.0
  0
VERTEX
  5
162
  8
DEFAULT
 62
   178
 10
104.9132888888889
 20
101.8643716666667
 30
0.0
  0
VERTEX
  5
163
  8
DEFAULT
 62
   178
 10
105.406825
 20
101.8340327777778
 30
0.0
  0
VERTEX
  5
164
  8
DEFAULT
 62
   178
 10
105.9007138888889
 20
101.8262716666666
 30
0.0
  0
VERTEX
  5
165
  8
DEFAULT
 62
   178
 10
106.4016583333333
 20
101.8188633333333
 30
0.0
  0
VERTEX
  5
166
  8
DEFAULT
 62
   178
 10
106.8951944444444
 20
101.8262716666666
 30
0.0
  0
VERTEX
  5
167
  8
DEFAULT
 62
   178
 10
107.3964916666666
 20
101.8340327777778
 30
0.0
  0
VERTEX
  5
168
  8
DEFAULT
 62
   178
 10
107.8903805555556
 20
101.8643716666667
 30
0.0
  0
VERTEX
  5
169
  8
DEFAULT
 62
   178
 10
108.3839166666667
 20
101.8947105555555
 30
0.0
  0
VERTEX
  5
16A
  8
DEFAULT
 62
   178
 10
108.8852138888889
 20
101.9402188888889
 30
0.0
  0
VERTEX
  5
16B
  8
DEFAULT
 62
   178
 10
109.37875
 20
101.9934883333333
 30
0.0
  0
VERTEX
  5
16C
  8
DEFAULT
 62
   178
 10
109.8722861111111
 20
102.0619272222222
 30
0.0
  0
VERTEX
  5
16D
  8
DEFAULT
 62
   178
 10
110.3584138888889
 20
102.1303661111111
 30
0.0
  0
VERTEX
  5
16E
  8
DEFAULT
 62
   178
 10
110.85195
 20
102.2136216666667
 30
0.0
  0
VERTEX
  5
16F
  8
DEFAULT
 62
   178
 10
111.3380777777778
 20
102.3049911111111
 30
0.0
  0
VERTEX
  5
170
  8
DEFAULT
 62
   178
 10
111.8242055555555
 20
102.4111772222222
 30
0.0
  0
SEQEND
  5
171
  8
DEFAULT
 62
   178
  0
POLYLINE
  5
172
  8
DEFAULT
 62
   178
 66
     1
 10
0.0
 20
0.0
 30
0.0
  0
VERTEX
  5
173
  8
DEFAULT
 62
   178
 10
101.0096969444444
 20
102.4414808333333
 30
0.0
  0
VERTEX
  5
174
  8
DEFAULT
 62
   178
 10
101.4958247222222
 20
102.3427030555555
 30
0.0
  0
VERTEX
  5
175
  8
DEFAULT
 62
   178
 10
101.9815997222222
 20
102.2442780555555
 30
0.0
  0
VERTEX
  5
176
  8
DEFAULT
 62
   178
 10
102.4680802777778
 20
102.1680780555555
 30
0.0
  0
VERTEX
  5
177
  8
DEFAULT
 62
   178
 10
102.9538552777778
 20
102.0922308333333
 30
0.0
  0
VERTEX
  5
178
  8
DEFAULT
 62
   178
 10
103.4473913888889
 20
102.0315530555555
 30
0.0
  0
VERTEX
  5
179
  8
DEFAULT
 62
   178
 10
103.9335191666667
 20
101.9782836111111
 30
0.0
  0
VERTEX
  5
17A
  8
DEFAULT
 62
   178
 10
104.4270552777778
 20
101.9327752777778
 30
0.0
  0
VERTEX
  5
17B
  8
DEFAULT
 62
   178
 10
104.9209441666667
 20
101.9024363888889
 30
0.0
  0
VERTEX
  5
17C
  8
DEFAULT
 62
   178
 10
105.4144802777778
 20
101.8795058333333
 30
0.0
  0
VERTEX
  5
17D
  8
DEFAULT
 62
   178
 10
105.9080163888889
 20
101.8643363888889
 30
0.0
  0
VERTEX
  5
17E
  8
DEFAULT
 62
   178
 10
106.4015525
 20
101.8565752777778
 30
0.0
  0
VERTEX
  5
17F
  8
DEFAULT
 62
   178
 10
106.8954413888889
 20
101.8643363888889
 30
0.0
  0
VERTEX
  5
180
  8
DEFAULT
 62
   178
 10
107.3889775
 20
101.8795058333333
 30
0.0
  0
VERTEX
  5
181
  8
DEFAULT
 62
   178
 10
107.8825136111111
 20
101.9024363888889
 30
0.0
  0
VERTEX
  5
182
  8
DEFAULT
 62
   178
 10
108.3764025
 20
101.9327752777778
 30
0.0
  0
VERTEX
  5
183
  8
DEFAULT
 62
   178
 10
108.8621775
 20
101.9782836111111
 30
0.0
  0
VERTEX
  5
184
  8
DEFAULT
 62
   178
 10
109.3560663888889
 20
102.0315530555555
 30
0.0
  0
VERTEX
  5
185
  8
DEFAULT
 62
   178
 10
109.8418413888889
 20
102.0922308333333
 30
0.0
  0
VERTEX
  5
186
  8
DEFAULT
 62
   178
 10
110.3357302777778
 20
102.1680780555555
 30
0.0
  0
VERTEX
  5
187
  8
DEFAULT
 62
   178
 10
110.8215052777778
 20
102.2442780555555
 30
0.0
  0
VERTEX
  5
188
  8
DEFAULT
 62
   178
 10
111.3076330555555
 20
102.3427030555555
 30
0.0
  0
VERTEX
  5
189
  8
DEFAULT
 62
   178
 10
111.7859997222222
 20
102.4414808333333
 30
0.0
  0
SEQEND
  5
18A
  8
DEFAULT
 62
   178
  0
LINE
  5
18B
  8
DEFAULT
 62
   178
 10
118.4463030555555
 20
137.6412241666667
 30
0.0
 11
118.0515447222222
 21
137.6412241666667
 31
0.0
  0
LINE
  5
18C
  8
DEFAULT
 62
   178
 10
117.8844338888889
 20
137.6412241666667
 30
0.0
 11
116.692045
 21
137.6412241666667
 31
0.0
  0
LINE
  5
18D
  8
DEFAULT
 62
   178
 10
118.5678702777777
 20
138.7423847222222
 30
0.0
 11
118.5449397222222
 21
138.7198069444444
 31
0.0
  0
LINE
  5
18E
  8
DEFAULT
 62
   178
 10
118.3247005555555
 20
138.7423847222222
 30
0.0
 11
118.5677644444444
 21
138.7423847222222
 31
0.0
  0
LINE
  5
18F
  8
DEFAULT
 62
   178
 10
118.5449044444444
 20
138.7197363888889
 30
0.0
 11
118.5449044444444
 21
137.6564641666666
 31
0.0
  0
LINE
  5
190
  8
DEFAULT
 62
   178
 10
118.0514741666667
 20
137.6412241666667
 30
0.0
 11
117.8842575
 21
137.6412241666667
 31
0.0
  0
LINE
  5
191
  8
DEFAULT
 62
   178
 10
118.5678702777778
 20
137.6412241666667
 30
0.0
 11
118.4461619444444
 21
137.6412241666667
 31
0.0
  0
LINE
  5
192
  8
DEFAULT
 62
   178
 10
118.5449044444444
 20
137.6563936111111
 30
0.0
 11
118.567835
 21
137.6412241666666
 31
0.0
  0
LINE
  5
193
  8
DEFAULT
 62
   178
 10
116.6921155555555
 20
134.5730805555555
 30
0.0
 11
117.8845044444444
 21
134.5730805555555
 31
0.0
  0
LINE
  5
194
  8
DEFAULT
 62
   178
 10
118.5678702777778
 20
134.5730805555555
 30
0.0
 11
118.0514036111111
 21
134.5730805555555
 31
0.0
  0
LINE
  5
195
  8
DEFAULT
 62
   178
 10
117.8844338888889
 20
133.47192
 30
0.0
 11
116.692045
 21
133.47192
 31
0.0
  0
LINE
  5
196
  8
DEFAULT
 62
   178
 10
118.0514741666667
 20
133.47192
 30
0.0
 11
118.5679408333333
 21
133.47192
 31
0.0
  0
LINE
  5
197
  8
DEFAULT
 62
   178
 10
116.6921155555555
 20
130.4038116666667
 30
0.0
 11
117.8845044444444
 21
130.4038116666667
 31
0.0
  0
LINE
  5
198
  8
DEFAULT
 62
   178
 10
118.5678702777778
 20
133.47192
 30
0.0
 11
118.5678702777778
 21
134.5729394444444
 31
0.0
  0
LINE
  5
199
  8
DEFAULT
 62
   178
 10
118.5449044444444
 20
130.3886775
 30
0.0
 11
118.5449044444444
 21
129.3254052777778
 31
0.0
  0
LINE
  5
19A
  8
DEFAULT
 62
   178
 10
118.5678702777777
 20
134.5730805555555
 30
0.0
 11
118.5449397222222
 21
134.5505027777778
 31
0.0
  0
LINE
  5
19B
  8
DEFAULT
 62
   178
 10
118.5449044444444
 20
133.4947447222222
 30
0.0
 11
118.567835
 21
133.4718141666666
 31
0.0
  0
LINE
  5
19C
  8
DEFAULT
 62
   178
 10
118.5678702777777
 20
130.4038116666667
 30
0.0
 11
118.5449397222222
 21
130.3886422222222
 31
0.0
  0
LINE
  5
19D
  8
DEFAULT
 62
   178
 10
118.5449044444444
 20
129.3254758333333
 30
0.0
 11
118.567835
 21
129.3025452777777
 31
0.0
  0
LINE
  5
19E
  8
DEFAULT
 62
   178
 10
118.5449044444444
 20
134.5503616666666
 30
0.0
 11
118.5449044444444
 21
133.4948505555555
 31
0.0
  0
LINE
  5
19F
  8
DEFAULT
 62
   178
 10
118.3247005555555
 20
129.3026511111111
 30
0.0
 11
118.5677644444444
 21
129.3026511111111
 31
0.0
  0
LINE
  5
1A0
  8
DEFAULT
 62
   178
 10
118.5678702777778
 20
130.4038116666667
 30
0.0
 11
118.0514036111111
 21
130.4038116666667
 31
0.0
  0
LINE
  5
1A1
  8
DEFAULT
 62
   178
 10
118.0514741666667
 20
134.5730805555555
 30
0.0
 11
117.8842575
 21
134.5730805555555
 31
0.0
  0
LINE
  5
1A2
  8
DEFAULT
 62
   178
 10
117.8844338888889
 20
133.47192
 30
0.0
 11
118.0516505555555
 21
133.47192
 31
0.0
  0
LINE
  5
1A3
  8
DEFAULT
 62
   178
 10
118.0514741666667
 20
130.4038116666667
 30
0.0
 11
117.8842575
 21
130.4038116666667
 31
0.0
  0
LINE
  5
1A4
  8
DEFAULT
 62
   178
 10
118.5678702777778
 20
137.6412241666667
 30
0.0
 11
118.5678702777778
 21
138.7422436111111
 31
0.0
  0
LINE
  5
1A5
  8
DEFAULT
 62
   178
 10
118.5678702777778
 20
129.3026511111111
 30
0.0
 11
118.5678702777778
 21
129.4240066666667
 31
0.0
  0
LINE
  5
1A6
  8
DEFAULT
 62
   178
 10
118.5678702777778
 20
129.4241125
 30
0.0
 11
118.5678702777778
 21
130.4037763888889
 31
0.0
  0
LINE
  5
1A7
  8
DEFAULT
 62
   178
 10
116.0237427777777
 20
134.5503616666666
 30
0.0
 11
116.0085733333333
 21
134.5729394444445
 31
0.0
  0
LINE
  5
1A8
  8
DEFAULT
 62
   178
 10
118.5449044444444
 20
133.4947447222222
 30
0.0
 11
116.0236016666667
 21
133.4947447222222
 31
0.0
  0
LINE
  5
1A9
  8
DEFAULT
 62
   178
 10
116.0237427777778
 20
133.4947447222222
 30
0.0
 11
116.0237427777778
 21
134.5502558333333
 31
0.0
  0
LINE
  5
1AA
  8
DEFAULT
 62
   178
 10
116.0086086111111
 20
133.5933813888889
 30
0.0
 11
116.0086086111111
 21
134.4516897222222
 31
0.0
  0
LINE
  5
1AB
  8
DEFAULT
 62
   178
 10
116.0086086111111
 20
133.47192
 30
0.0
 11
116.0086086111111
 21
133.5932755555556
 31
0.0
  0
LINE
  5
1AC
  8
DEFAULT
 62
   178
 10
116.0086086111111
 20
134.4516191666667
 30
0.0
 11
116.0086086111111
 21
134.5729747222222
 31
0.0
  0
LINE
  5
1AD
  8
DEFAULT
 62
   178
 10
116.5249341666667
 20
134.5730805555555
 30
0.0
 11
116.0084675
 21
134.5730805555555
 31
0.0
  0
LINE
  5
1AE
  8
DEFAULT
 62
   178
 10
116.6921155555555
 20
134.5730805555555
 30
0.0
 11
116.5248988888889
 21
134.5730805555555
 31
0.0
  0
LINE
  5
1AF
  8
DEFAULT
 62
   178
 10
116.0237427777778
 20
134.5503616666666
 30
0.0
 11
118.5450455555555
 21
134.5503616666666
 31
0.0
  0
LINE
  5
1B0
  8
DEFAULT
 62
   178
 10
116.0086086111111
 20
133.47192
 30
0.0
 11
116.5250752777778
 21
133.47192
 31
0.0
  0
LINE
  5
1B1
  8
DEFAULT
 62
   178
 10
116.0086086111111
 20
133.47192
 30
0.0
 11
116.0237780555555
 21
133.4948505555555
 31
0.0
  0
LINE
  5
1B2
  8
DEFAULT
 62
   178
 10
116.5249341666667
 20
133.47192
 30
0.0
 11
116.6921508333333
 21
133.47192
 31
0.0
  0
LINE
  5
1B3
  8
DEFAULT
 62
   178
 10
116.0086086111111
 20
137.6412241666667
 30
0.0
 11
116.0086086111111
 21
138.7422436111111
 31
0.0
  0
LINE
  5
1B4
  8
DEFAULT
 62
   178
 10
116.0237427777778
 20
137.6563936111111
 30
0.0
 11
116.0085733333333
 21
137.6412241666667
 31
0.0
  0
LINE
  5
1B5
  8
DEFAULT
 62
   178
 10
116.0237427777778
 20
138.7197363888889
 30
0.0
 11
116.0237427777778
 21
137.6564641666666
 31
0.0
  0
LINE
  5
1B6
  8
DEFAULT
 62
   178
 10
116.0086086111111
 20
138.7423847222222
 30
0.0
 11
116.0237780555556
 21
138.7198069444445
 31
0.0
  0
LINE
  5
1B7
  8
DEFAULT
 62
   178
 10
116.2439819444444
 20
138.7423847222222
 30
0.0
 11
118.3246652777778
 21
138.7423847222222
 31
0.0
  0
LINE
  5
1B8
  8
DEFAULT
 62
   178
 10
118.5449044444444
 20
138.7197363888889
 30
0.0
 11
116.0236016666667
 21
138.7197363888889
 31
0.0
  0
LINE
  5
1B9
  8
DEFAULT
 62
   178
 10
116.0086086111111
 20
138.7423847222222
 30
0.0
 11
116.2439113888889
 21
138.7423847222222
 31
0.0
  0
LINE
  5
1BA
  8
DEFAULT
 62
   178
 10
116.6921155555555
 20
137.6412241666667
 30
0.0
 11
116.5248988888889
 21
137.6412241666667
 31
0.0
  0
LINE
  5
1BB
  8
DEFAULT
 62
   178
 10
116.5249341666667
 20
137.6412241666667
 30
0.0
 11
116.0084675
 21
137.6412241666667
 31
0.0
  0
LINE
  5
1BC
  8
DEFAULT
 62
   178
 10
116.0237427777778
 20
137.6563936111111
 30
0.0
 11
118.5450455555555
 21
137.6563936111111
 31
0.0
  0
LINE
  5
1BD
  8
DEFAULT
 62
   178
 10
116.0086086111111
 20
129.3026511111111
 30
0.0
 11
116.2439113888889
 21
129.3026511111111
 31
0.0
  0
LINE
  5
1BE
  8
DEFAULT
 62
   178
 10
116.0237427777778
 20
129.3254758333333
 30
0.0
 11
116.0237427777778
 21
130.3887480555555
 31
0.0
  0
LINE
  5
1BF
  8
DEFAULT
 62
   178
 10
116.0086086111111
 20
130.2898997222222
 30
0.0
 11
116.0086086111111
 21
130.4038469444444
 31
0.0
  0
LINE
  5
1C0
  8
DEFAULT
 62
   178
 10
116.0086086111111
 20
129.3026511111111
 30
0.0
 11
116.0086086111111
 21
130.2900761111111
 31
0.0
  0
LINE
  5
1C1
  8
DEFAULT
 62
   178
 10
116.0237427777778
 20
130.3886775
 30
0.0
 11
118.5450455555555
 21
130.3886775
 31
0.0
  0
LINE
  5
1C2
  8
DEFAULT
 62
   178
 10
116.6921155555555
 20
130.4038116666667
 30
0.0
 11
116.5248988888889
 21
130.4038116666667
 31
0.0
  0
LINE
  5
1C3
  8
DEFAULT
 62
   178
 10
116.5249341666667
 20
130.4038116666667
 30
0.0
 11
116.0084675
 21
130.4038116666667
 31
0.0
  0
LINE
  5
1C4
  8
DEFAULT
 62
   178
 10
116.0237427777778
 20
130.3886775
 30
0.0
 11
116.0085733333333
 21
130.4038469444445
 31
0.0
  0
LINE
  5
1C5
  8
DEFAULT
 62
   178
 10
118.5449044444444
 20
129.3254758333333
 30
0.0
 11
116.0236016666667
 21
129.3254758333333
 31
0.0
  0
LINE
  5
1C6
  8
DEFAULT
 62
   178
 10
116.2439819444444
 20
129.3026511111111
 30
0.0
 11
118.3246652777778
 21
129.3026511111111
 31
0.0
  0
LINE
  5
1C7
  8
DEFAULT
 62
   178
 10
116.0086086111111
 20
129.3026511111111
 30
0.0
 11
116.0237780555555
 21
129.3255816666666
 31
0.0
  0
LINE
  5
1C8
  8
DEFAULT
 62
   178
 10
90.78019972222222
 20
119.2781530555555
 30
0.0
 11
90.78019972222222
 21
103.7174780555556
 31
0.0
  0
LINE
  5
1C9
  8
DEFAULT
 62
   178
 10
90.78019972222222
 20
139.4031022222222
 30
0.0
 11
90.78019972222222
 21
156.7029716666666
 31
0.0
  0
LINE
  5
1CA
  8
DEFAULT
 62
   178
 10
90.84091277777777
 20
136.9653019444444
 30
0.0
 11
90.84091277777777
 21
119.6880102777778
 31
0.0
  0
LINE
  5
1CB
  8
DEFAULT
 62
   178
 10
90.90935166666667
 20
103.8463830555555
 30
0.0
 11
90.90935166666667
 21
156.5739608333333
 31
0.0
  0
LINE
  5
1CC
  8
DEFAULT
 62
   178
 10
90.97006472222222
 20
128.6419336111111
 30
0.0
 11
90.97006472222222
 21
126.0902919444444
 31
0.0
  0
LINE
  5
1CD
  8
DEFAULT
 62
   178
 10
90.97006472222222
 20
126.0902213888889
 30
0.0
 11
90.97747305555556
 21
126.0902213888889
 31
0.0
  0
LINE
  5
1CE
  8
DEFAULT
 62
   178
 10
90.97764944444444
 20
126.1207719444444
 30
0.0
 11
90.97024111111111
 21
126.0900802777778
 31
0.0
  0
LINE
  5
1CF
  8
DEFAULT
 62
   178
 10
90.9700647222222
 20
128.6419336111111
 30
0.0
 11
90.97747305555556
 21
128.6190030555555
 31
0.0
  0
LINE
  5
1D0
  8
DEFAULT
 62
   178
 10
90.97764944444444
 20
128.6419336111111
 30
0.0
 11
90.97024111111111
 21
128.6419336111111
 31
0.0
  0
LINE
  5
1D1
  8
DEFAULT
 62
   178
 10
90.97006472222222
 20
134.2997130555555
 30
0.0
 11
90.97006472222222
 21
131.7480713888889
 31
0.0
  0
LINE
  5
1D2
  8
DEFAULT
 62
   178
 10
90.97764944444447
 20
131.770755
 30
0.0
 11
90.97024111111112
 21
131.7481772222222
 31
0.0
  0
LINE
  5
1D3
  8
DEFAULT
 62
   178
 10
90.97006472222222
 20
131.7480361111111
 30
0.0
 11
90.97747305555556
 21
131.7480361111111
 31
0.0
  0
LINE
  5
1D4
  8
DEFAULT
 62
   178
 10
90.9700647222222
 20
134.2997130555555
 30
0.0
 11
90.97747305555554
 21
134.2693741666666
 31
0.0
  0
LINE
  5
1D5
  8
DEFAULT
 62
   178
 10
90.97764944444444
 20
134.2997130555555
 30
0.0
 11
90.97024111111111
 21
134.2997130555555
 31
0.0
  0
LINE
  5
1D6
  8
DEFAULT
 62
   178
 10
90.78774916666664
 20
139.4182716666666
 30
0.0
 11
90.83325749999999
 21
139.4182716666666
 31
0.0
  0
LINE
  5
1D7
  8
DEFAULT
 62
   178
 10
90.78019972222222
 20
156.7029716666667
 30
0.0
 11
90.9093163888889
 21
156.573855
 31
0.0
  0
LINE
  5
1D8
  8
DEFAULT
 62
   178
 10
90.83332805555554
 20
138.4994619444444
 30
0.0
 11
90.84073638888889
 21
140.6260063888889
 31
0.0
  0
LINE
  5
1D9
  8
DEFAULT
 62
   178
 10
90.78019972222222
 20
139.4031022222222
 30
0.0
 11
90.83346916666666
 21
139.3956938888889
 31
0.0
  0
LINE
  5
1DA
  8
DEFAULT
 62
   178
 10
90.84091277777777
 20
140.5955616666666
 30
0.0
 11
90.81798222222221
 21
140.5955616666666
 31
0.0
  0
LINE
  5
1DB
  8
DEFAULT
 62
   178
 10
91.20543805555555
 20
156.8700472222222
 30
0.0
 11
91.2206075
 21
156.8700472222222
 31
0.0
  0
LINE
  5
1DC
  8
DEFAULT
 62
   178
 10
91.20543805555555
 20
156.8700472222222
 30
0.0
 11
91.07632138888889
 21
157.006925
 31
0.0
  0
LINE
  5
1DD
  8
DEFAULT
 62
   178
 10
121.8864155555555
 20
156.5739255555555
 30
0.0
 11
121.8864155555555
 21
103.8463477777778
 31
0.0
  0
LINE
  5
1DE
  8
DEFAULT
 62
   178
 10
121.8333577777778
 20
128.6419336111111
 30
0.0
 11
121.8333577777778
 21
126.0902919444444
 31
0.0
  0
LINE
  5
1DF
  8
DEFAULT
 62
   178
 10
121.8333577777778
 20
128.6419336111111
 30
0.0
 11
121.8181883333333
 21
128.6419336111111
 31
0.0
  0
LINE
  5
1E0
  8
DEFAULT
 62
   178
 10
121.8182236111111
 20
128.6191794444444
 30
0.0
 11
121.8333930555556
 21
128.64211
 31
0.0
  0
LINE
  5
1E1
  8
DEFAULT
 62
   178
 10
121.8333577777777
 20
126.0902213888889
 30
0.0
 11
121.8181883333333
 21
126.1209130555555
 31
0.0
  0
LINE
  5
1E2
  8
DEFAULT
 62
   178
 10
121.8182236111111
 20
126.0902213888889
 30
0.0
 11
121.8333930555556
 21
126.0902213888889
 31
0.0
  0
LINE
  5
1E3
  8
DEFAULT
 62
   178
 10
121.8333577777778
 20
134.2997130555555
 30
0.0
 11
121.8181883333333
 21
134.2997130555555
 31
0.0
  0
LINE
  5
1E4
  8
DEFAULT
 62
   178
 10
121.8182236111111
 20
134.2693036111111
 30
0.0
 11
121.8333930555556
 21
134.2996425
 31
0.0
  0
LINE
  5
1E5
  8
DEFAULT
 62
   178
 10
121.8333577777778
 20
134.2997130555555
 30
0.0
 11
121.8333577777778
 21
131.7480713888889
 31
0.0
  0
LINE
  5
1E6
  8
DEFAULT
 62
   178
 10
121.8333577777778
 20
131.7480361111111
 30
0.0
 11
121.8181883333333
 21
131.7706138888889
 31
0.0
  0
LINE
  5
1E7
  8
DEFAULT
 62
   178
 10
121.8182236111111
 20
131.7480361111111
 30
0.0
 11
121.8333930555556
 21
131.7480361111111
 31
0.0
  0
LINE
  5
1E8
  8
DEFAULT
 62
   178
 10
121.5828502777778
 20
156.8700472222222
 30
0.0
 11
121.5902586111111
 21
156.8700472222222
 31
0.0
  0
LINE
  5
1E9
  8
DEFAULT
 62
   178
 10
121.7194811111111
 20
157.0067838888889
 30
0.0
 11
121.5903644444444
 21
156.8699061111111
 31
0.0
  0
LINE
  5
1EA
  8
DEFAULT
 62
   178
 10
121.9624038888889
 20
119.6881866666667
 30
0.0
 11
122.0234344444445
 21
119.2782588888889
 31
0.0
  0
LINE
  5
1EB
  8
DEFAULT
 62
   178
 10
121.8864155555555
 20
156.5739255555555
 30
0.0
 11
122.0232933333333
 21
156.7030422222222
 31
0.0
  0
LINE
  5
1EC
  8
DEFAULT
 62
   178
 10
122.0157086111111
 20
139.3956586111111
 30
0.0
 11
121.9702002777778
 21
139.3956586111111
 31
0.0
  0
LINE
  5
1ED
  8
DEFAULT
 62
   178
 10
122.0157086111112
 20
139.3956586111111
 30
0.0
 11
122.0083002777778
 21
139.4182363888889
 31
0.0
  0
LINE
  5
1EE
  8
DEFAULT
 62
   178
 10
122.0081591666667
 20
139.4182716666666
 30
0.0
 11
121.9700591666666
 21
139.4182716666666
 31
0.0
  0
LINE
  5
1EF
  8
DEFAULT
 62
   178
 10
121.9624038888889
 20
140.6258652777778
 30
0.0
 11
121.970165
 21
138.4993208333333
 31
0.0
  0
LINE
  5
1F0
  8
DEFAULT
 62
   178
 10
121.9852638888889
 20
140.5955616666666
 30
0.0
 11
121.9623333333333
 21
140.5955616666666
 31
0.0
  0
LINE
  5
1F1
  8
DEFAULT
 62
   178
 10
121.9624038888889
 20
119.6881866666667
 30
0.0
 11
121.9624038888889
 21
136.9654783333333
 31
0.0
  0
LINE
  5
1F2
  8
DEFAULT
 62
   178
 10
122.0232933333333
 20
156.7029716666667
 30
0.0
 11
122.015885
 21
139.3956938888889
 31
0.0
  0
LINE
  5
1F3
  8
DEFAULT
 62
   178
 10
122.0232933333333
 20
103.7173722222222
 30
0.0
 11
122.0232933333333
 21
119.2780472222222
 31
0.0
  0
LINE
  5
1F4
  8
DEFAULT
 62
   178
 10
121.5828502777777
 20
103.5580225
 30
0.0
 11
121.5902586111111
 21
103.5502613888889
 31
0.0
  0
LINE
  5
1F5
  8
DEFAULT
 62
   178
 10
122.0232933333333
 20
103.7173722222222
 30
0.0
 11
121.8864155555556
 21
103.8464888888889
 31
0.0
  0
LINE
  5
1F6
  8
DEFAULT
 62
   178
 10
90.78019972222222
 20
119.2781530555555
 30
0.0
 11
90.8408775
 21
119.6880808333333
 31
0.0
  0
LINE
  5
1F7
  8
DEFAULT
 62
   178
 10
121.5828502777778
 20
156.8700472222222
 30
0.0
 11
91.22067805555555
 21
156.8700472222222
 31
0.0
  0
LINE
  5
1F8
  8
DEFAULT
 62
   178
 10
91.07625083333333
 20
157.0067838888889
 30
0.0
 11
121.7195869444444
 21
157.0067838888889
 31
0.0
  0
LINE
  5
1F9
  8
DEFAULT
 62
   178
 10
121.7194811111111
 20
103.42118
 30
0.0
 11
112.8569977777778
 21
103.42118
 31
0.0
  0
LINE
  5
1FA
  8
DEFAULT
 62
   178
 10
100.0528577777778
 20
103.5350566666667
 30
0.0
 11
112.74298
 21
103.5350566666667
 31
0.0
  0
LINE
  5
1FB
  8
DEFAULT
 62
   178
 10
91.22071333333332
 20
103.5580225
 30
0.0
 11
121.5828855555555
 21
103.5580225
 31
0.0
  0
LINE
  5
1FC
  8
DEFAULT
 62
   178
 10
90.90935166666671
 20
103.8463830555556
 30
0.0
 11
90.78023500000005
 21
103.7172663888889
 31
0.0
  0
LINE
  5
1FD
  8
DEFAULT
 62
   178
 10
91.20543805555553
 20
103.5503319444444
 30
0.0
 11
91.22060749999997
 21
103.5580930555555
 31
0.0
  0
LINE
  5
1FE
  8
DEFAULT
 62
   178
 10
91.07625083333333
 20
103.42118
 30
0.0
 11
91.2053675
 21
103.5502966666667
 31
0.0
  0
LINE
  5
1FF
  8
DEFAULT
 62
   178
 10
100.0528577777778
 20
103.5350566666667
 30
0.0
 11
99.93891055555557
 21
103.4211094444445
 31
0.0
  0
LINE
  5
200
  8
DEFAULT
 62
   178
 10
99.93894583333332
 20
103.42118
 30
0.0
 11
91.07610972222221
 21
103.42118
 31
0.0
  0
LINE
  5
201
  8
DEFAULT
 62
   178
 10
112.8568919444444
 20
103.42118
 30
0.0
 11
112.7429447222222
 21
103.5351272222222
 31
0.0
  0
LINE
  5
202
  8
DEFAULT
 62
   178
 10
121.5902938888889
 20
103.5503319444444
 30
0.0
 11
121.7194105555555
 21
103.4212152777778
 31
0.0
  0
POLYLINE
  5
203
  8
DEFAULT
 62
   178
 66
     1
 10
0.0
 20
0.0
 30
0.0
  0
VERTEX
  5
204
  8
DEFAULT
 62
   178
 10
91.07625083333333
 20
157.0067838888889
 30
0.0
  0
VERTEX
  5
205
  8
DEFAULT
 62
   178
 10
91.02333416666667
 20
156.9993755555555
 30
0.0
  0
VERTEX
  5
206
  8
DEFAULT
 62
   178
 10
90.97747305555556
 20
156.9842061111111
 30
0.0
  0
VERTEX
  5
207
  8
DEFAULT
 62
   178
 10
90.93196472222222
 20
156.9612755555555
 30
0.0
  0
VERTEX
  5
208
  8
DEFAULT
 62
   178
 10
90.88645638888887
 20
156.9309366666667
 30
0.0
  0
VERTEX
  5
209
  8
DEFAULT
 62
   178
 10
90.84835638888887
 20
156.9005977777778
 30
0.0
  0
VERTEX
  5
20A
  8
DEFAULT
 62
   178
 10
90.81801749999998
 20
156.8547366666667
 30
0.0
  0
VERTEX
  5
20B
  8
DEFAULT
 62
   178
 10
90.79543972222221
 20
156.8092283333333
 30
0.0
  0
VERTEX
  5
20C
  8
DEFAULT
 62
   178
 10
90.7876786111111
 20
156.7563116666667
 30
0.0
  0
VERTEX
  5
20D
  8
DEFAULT
 62
   178
 10
90.78027027777777
 20
156.7030422222222
 30
0.0
  0
SEQEND
  5
20E
  8
DEFAULT
 62
   178
  0
POLYLINE
  5
20F
  8
DEFAULT
 62
   178
 66
     1
 10
0.0
 20
0.0
 30
0.0
  0
VERTEX
  5
210
  8
DEFAULT
 62
   178
 10
91.20543805555555
 20
156.8700472222222
 30
0.0
  0
VERTEX
  5
211
  8
DEFAULT
 62
   178
 10
91.1599297222222
 20
156.8700472222222
 30
0.0
  0
VERTEX
  5
212
  8
DEFAULT
 62
   178
 10
91.10666027777778
 20
156.8548777777777
 30
0.0
  0
VERTEX
  5
213
  8
DEFAULT
 62
   178
 10
91.06115194444443
 20
156.8323
 30
0.0
  0
VERTEX
  5
214
  8
DEFAULT
 62
   178
 10
91.0156436111111
 20
156.8016083333333
 30
0.0
  0
VERTEX
  5
215
  8
DEFAULT
 62
   178
 10
90.9775436111111
 20
156.7638611111111
 30
0.0
  0
VERTEX
  5
216
  8
DEFAULT
 62
   178
 10
90.95496583333333
 20
156.7257611111111
 30
0.0
  0
VERTEX
  5
217
  8
DEFAULT
 62
   178
 10
90.93203527777777
 20
156.6802527777778
 30
0.0
  0
VERTEX
  5
218
  8
DEFAULT
 62
   178
 10
90.91686583333333
 20
156.6269833333333
 30
0.0
  0
VERTEX
  5
219
  8
DEFAULT
 62
   178
 10
90.90945749999999
 20
156.5740666666667
 30
0.0
  0
SEQEND
  5
21A
  8
DEFAULT
 62
   178
  0
POLYLINE
  5
21B
  8
DEFAULT
 62
   178
 66
     1
 10
0.0
 20
0.0
 30
0.0
  0
VERTEX
  5
21C
  8
DEFAULT
 62
   178
 10
121.8864155555555
 20
156.5739255555555
 30
0.0
  0
VERTEX
  5
21D
  8
DEFAULT
 62
   178
 10
121.8864155555555
 20
156.627195
 30
0.0
  0
VERTEX
  5
21E
  8
DEFAULT
 62
   178
 10
121.8712461111111
 20
156.6801116666666
 30
0.0
  0
VERTEX
  5
21F
  8
DEFAULT
 62
   178
 10
121.8486683333333
 20
156.7259727777777
 30
0.0
  0
VERTEX
  5
220
  8
DEFAULT
 62
   178
 10
121.8183294444444
 20
156.76372
 30
0.0
  0
VERTEX
  5
221
  8
DEFAULT
 62
   178
 10
121.7802294444444
 20
156.80182
 30
0.0
  0
VERTEX
  5
222
  8
DEFAULT
 62
   178
 10
121.7421294444444
 20
156.8321588888889
 30
0.0
  0
VERTEX
  5
223
  8
DEFAULT
 62
   178
 10
121.6966211111111
 20
156.8547366666666
 30
0.0
  0
VERTEX
  5
224
  8
DEFAULT
 62
   178
 10
121.6437044444444
 20
156.8699061111111
 30
0.0
  0
VERTEX
  5
225
  8
DEFAULT
 62
   178
 10
121.590435
 20
156.8699061111111
 30
0.0
  0
SEQEND
  5
226
  8
DEFAULT
 62
   178
  0
POLYLINE
  5
227
  8
DEFAULT
 62
   178
 66
     1
 10
0.0
 20
0.0
 30
0.0
  0
VERTEX
  5
228
  8
DEFAULT
 62
   178
 10
122.0232933333333
 20
156.7029716666667
 30
0.0
  0
VERTEX
  5
229
  8
DEFAULT
 62
   178
 10
122.015885
 20
156.7562411111111
 30
0.0
  0
VERTEX
  5
22A
  8
DEFAULT
 62
   178
 10
122.0003627777778
 20
156.8091577777778
 30
0.0
  0
VERTEX
  5
22B
  8
DEFAULT
 62
   178
 10
121.977785
 20
156.8550188888889
 30
0.0
  0
VERTEX
  5
22C
  8
DEFAULT
 62
   178
 10
121.9474461111111
 20
156.9005272222222
 30
0.0
  0
VERTEX
  5
22D
  8
DEFAULT
 62
   178
 10
121.9171072222222
 20
156.9308661111111
 30
0.0
  0
VERTEX
  5
22E
  8
DEFAULT
 62
   178
 10
121.8712461111111
 20
156.961205
 30
0.0
  0
VERTEX
  5
22F
  8
DEFAULT
 62
   178
 10
121.8257377777778
 20
156.9841355555556
 30
0.0
  0
VERTEX
  5
230
  8
DEFAULT
 62
   178
 10
121.7724683333333
 20
156.999305
 30
0.0
  0
VERTEX
  5
231
  8
DEFAULT
 62
   178
 10
121.7195516666667
 20
157.0067133333333
 30
0.0
  0
SEQEND
  5
232
  8
DEFAULT
 62
   178
  0
POLYLINE
  5
233
  8
DEFAULT
 62
   178
 66
     1
 10
0.0
 20
0.0
 30
0.0
  0
VERTEX
  5
234
  8
DEFAULT
 62
   178
 10
121.5902938888889
 20
103.5503319444444
 30
0.0
  0
VERTEX
  5
235
  8
DEFAULT
 62
   178
 10
121.6435633333333
 20
103.5580930555555
 30
0.0
  0
VERTEX
  5
236
  8
DEFAULT
 62
   178
 10
121.69648
 20
103.5729097222222
 30
0.0
  0
VERTEX
  5
237
  8
DEFAULT
 62
   178
 10
121.7423411111111
 20
103.5884319444444
 30
0.0
  0
VERTEX
  5
238
  8
DEFAULT
 62
   178
 10
121.7800883333333
 20
103.6187708333333
 30
0.0
  0
VERTEX
  5
239
  8
DEFAULT
 62
   178
 10
121.8181883333333
 20
103.6565180555556
 30
0.0
  0
VERTEX
  5
23A
  8
DEFAULT
 62
   178
 10
121.8485272222222
 20
103.7023791666667
 30
0.0
  0
VERTEX
  5
23B
  8
DEFAULT
 62
   178
 10
121.8714577777778
 20
103.7475347222222
 30
0.0
  0
VERTEX
  5
23C
  8
DEFAULT
 62
   178
 10
121.8862744444444
 20
103.8008041666667
 30
0.0
  0
VERTEX
  5
23D
  8
DEFAULT
 62
   178
 10
121.8862744444444
 20
103.8463125
 30
0.0
  0
SEQEND
  5
23E
  8
DEFAULT
 62
   178
  0
POLYLINE
  5
23F
  8
DEFAULT
 62
   178
 66
     1
 10
0.0
 20
0.0
 30
0.0
  0
VERTEX
  5
240
  8
DEFAULT
 62
   178
 10
121.7194811111111
 20
103.42118
 30
0.0
  0
VERTEX
  5
241
  8
DEFAULT
 62
   178
 10
121.7723977777777
 20
103.4285883333333
 30
0.0
  0
VERTEX
  5
242
  8
DEFAULT
 62
   178
 10
121.8256672222222
 20
103.4363494444444
 30
0.0
  0
VERTEX
  5
243
  8
DEFAULT
 62
   178
 10
121.8715283333333
 20
103.45928
 30
0.0
  0
VERTEX
  5
244
  8
DEFAULT
 62
   178
 10
121.9170366666667
 20
103.4896188888889
 30
0.0
  0
VERTEX
  5
245
  8
DEFAULT
 62
   178
 10
121.9473755555556
 20
103.5273661111111
 30
0.0
  0
VERTEX
  5
246
  8
DEFAULT
 62
   178
 10
121.9777144444445
 20
103.5732272222222
 30
0.0
  0
VERTEX
  5
247
  8
DEFAULT
 62
   178
 10
122.0002922222222
 20
103.6187355555555
 30
0.0
  0
VERTEX
  5
248
  8
DEFAULT
 62
   178
 10
122.0158144444444
 20
103.6642438888889
 30
0.0
  0
VERTEX
  5
249
  8
DEFAULT
 62
   178
 10
122.0232227777778
 20
103.7175133333333
 30
0.0
  0
SEQEND
  5
24A
  8
DEFAULT
 62
   178
  0
POLYLINE
  5
24B
  8
DEFAULT
 62
   178
 66
     1
 10
0.0
 20
0.0
 30
0.0
  0
VERTEX
  5
24C
  8
DEFAULT
 62
   178
 10
90.90935166666665
 20
103.8463830555555
 30
0.0
  0
VERTEX
  5
24D
  8
DEFAULT
 62
   178
 10
90.91675999999998
 20
103.8008747222222
 30
0.0
  0
VERTEX
  5
24E
  8
DEFAULT
 62
   178
 10
90.93192944444445
 20
103.7476052777778
 30
0.0
  0
VERTEX
  5
24F
  8
DEFAULT
 62
   178
 10
90.9470988888889
 20
103.7020969444444
 30
0.0
  0
VERTEX
  5
250
  8
DEFAULT
 62
   178
 10
90.97779055555556
 20
103.6565886111111
 30
0.0
  0
VERTEX
  5
251
  8
DEFAULT
 62
   178
 10
91.01553777777777
 20
103.6184886111111
 30
0.0
  0
VERTEX
  5
252
  8
DEFAULT
 62
   178
 10
91.06139888888889
 20
103.5881497222222
 30
0.0
  0
VERTEX
  5
253
  8
DEFAULT
 62
   178
 10
91.10655444444446
 20
103.5729802777778
 30
0.0
  0
VERTEX
  5
254
  8
DEFAULT
 62
   178
 10
91.15982388888888
 20
103.5581636111111
 30
0.0
  0
VERTEX
  5
255
  8
DEFAULT
 62
   178
 10
91.20533222222222
 20
103.5504025
 30
0.0
  0
SEQEND
  5
256
  8
DEFAULT
 62
   178
  0
POLYLINE
  5
257
  8
DEFAULT
 62
   178
 66
     1
 10
0.0
 20
0.0
 30
0.0
  0
VERTEX
  5
258
  8
DEFAULT
 62
   178
 10
90.78019972222222
 20
103.7173722222222
 30
0.0
  0
VERTEX
  5
259
  8
DEFAULT
 62
   178
 10
90.78760805555555
 20
103.6641027777778
 30
0.0
  0
VERTEX
  5
25A
  8
DEFAULT
 62
   178
 10
90.79536916666666
 20
103.6185944444445
 30
0.0
  0
VERTEX
  5
25B
  8
DEFAULT
 62
   178
 10
90.81794694444444
 20
103.5730861111111
 30
0.0
  0
VERTEX
  5
25C
  8
DEFAULT
 62
   178
 10
90.84828583333332
 20
103.5275777777778
 30
0.0
  0
VERTEX
  5
25D
  8
DEFAULT
 62
   178
 10
90.88638583333332
 20
103.4894777777778
 30
0.0
  0
VERTEX
  5
25E
  8
DEFAULT
 62
   178
 10
90.93224694444443
 20
103.4591388888889
 30
0.0
  0
VERTEX
  5
25F
  8
DEFAULT
 62
   178
 10
90.97775527777777
 20
103.4362083333333
 30
0.0
  0
VERTEX
  5
260
  8
DEFAULT
 62
   178
 10
91.0232636111111
 20
103.4288
 30
0.0
  0
VERTEX
  5
261
  8
DEFAULT
 62
   178
 10
91.07618027777777
 20
103.4210388888889
 30
0.0
  0
SEQEND
  5
262
  8
DEFAULT
 62
   178
  0
LINE
  5
263
  8
DEFAULT
 62
   178
 10
91.47122083333332
 20
141.6358680555555
 30
0.0
 11
91.47122083333332
 21
118.7920958333333
 31
0.0
  0
LINE
  5
264
  8
DEFAULT
 62
   178
 10
91.75989888888888
 20
119.3844802777778
 30
0.0
 11
91.75989888888888
 21
141.0358636111111
 31
0.0
  0
LINE
  5
265
  8
DEFAULT
 62
   178
 10
91.77503305555554
 20
119.3844802777778
 30
0.0
 11
91.77503305555554
 21
141.0358636111111
 31
0.0
  0
LINE
  5
266
  8
DEFAULT
 62
   178
 10
90.92438
 20
103.8541088888889
 30
0.0
 11
90.92438
 21
156.5739255555555
 31
0.0
  0
LINE
  5
267
  8
DEFAULT
 62
   178
 10
94.63048694444443
 20
116.9086858333333
 30
0.0
 11
96.46069805555557
 21
116.7718080555555
 31
0.0
  0
LINE
  5
268
  8
DEFAULT
 62
   178
 10
94.68368583333333
 20
116.7719491666666
 30
0.0
 11
92.85347472222222
 21
116.9088269444444
 31
0.0
  0
LINE
  5
269
  8
DEFAULT
 62
   178
 10
96.39240027777777
 20
143.6559794444444
 30
0.0
 11
94.59252805555555
 21
143.5191016666666
 31
0.0
  0
LINE
  5
26A
  8
DEFAULT
 62
   178
 10
94.68368583333333
 20
116.7719491666667
 30
0.0
 11
94.69109416666666
 21
116.9010658333333
 31
0.0
  0
LINE
  5
26B
  8
DEFAULT
 62
   178
 10
93.29384722222221
 20
152.7615972222222
 30
0.0
 11
93.17989999999999
 21
152.7615972222222
 31
0.0
  0
LINE
  5
26C
  8
DEFAULT
 62
   178
 10
93.17997055555556
 20
152.7463572222222
 30
0.0
 11
93.17997055555556
 21
152.1159433333333
 31
0.0
  0
LINE
  5
26D
  8
DEFAULT
 62
   178
 10
93.17997055555556
 20
149.2910752777778
 30
0.0
 11
93.17997055555556
 21
150.0657752777778
 31
0.0
  0
LINE
  5
26E
  8
DEFAULT
 62
   178
 10
93.17997055555556
 20
150.217505
 30
0.0
 11
93.17997055555556
 21
150.0654577777778
 31
0.0
  0
LINE
  5
26F
  8
DEFAULT
 62
   178
 10
93.17997055555556
 20
152.7463572222222
 30
0.0
 11
93.29391777777776
 21
152.7463572222222
 31
0.0
  0
LINE
  5
270
  8
DEFAULT
 62
   178
 10
93.29384722222221
 20
153.6349691666667
 30
0.0
 11
93.17989999999999
 21
153.6349691666667
 31
0.0
  0
LINE
  5
271
  8
DEFAULT
 62
   178
 10
93.17997055555556
 20
153.6197291666666
 30
0.0
 11
93.29391777777776
 21
153.6197291666666
 31
0.0
  0
LINE
  5
272
  8
DEFAULT
 62
   178
 10
93.17997055555551
 20
152.1160491666666
 30
0.0
 11
93.12670111111106
 21
152.1996575
 31
0.0
  0
LINE
  5
273
  8
DEFAULT
 62
   178
 10
93.17997055555556
 20
150.217505
 30
0.0
 11
93.11929277777774
 21
150.1338966666666
 31
0.0
  0
LINE
  5
274
  8
DEFAULT
 62
   178
 10
93.84816694444443
 20
116.7719491666666
 30
0.0
 11
94.68354472222221
 21
116.7719491666666
 31
0.0
  0
LINE
  5
275
  8
DEFAULT
 62
   178
 10
94.75963888888889
 20
143.6559794444444
 30
0.0
 11
96.39229444444443
 21
143.6559794444444
 31
0.0
  0
LINE
  5
276
  8
DEFAULT
 62
   178
 10
94.75963888888889
 20
143.6559794444444
 30
0.0
 11
93.7722138888889
 21
143.6559794444444
 31
0.0
  0
LINE
  5
277
  8
DEFAULT
 62
   178
 10
93.17997055555556
 20
150.0655988888889
 30
0.0
 11
93.29391777777776
 21
150.0655988888889
 31
0.0
  0
LINE
  5
278
  8
DEFAULT
 62
   178
 10
93.0965033333333
 20
150.2706333333333
 30
0.0
 11
93.04323388888886
 21
150.1870249999999
 31
0.0
  0
LINE
  5
279
  8
DEFAULT
 62
   178
 10
93.11925749999999
 20
149.2378058333333
 30
0.0
 11
93.11925749999999
 21
150.1338613888889
 31
0.0
  0
LINE
  5
27A
  8
DEFAULT
 62
   178
 10
93.17997055555556
 20
155.5107591666666
 30
0.0
 11
93.17997055555556
 21
153.6350397222222
 31
0.0
  0
LINE
  5
27B
  8
DEFAULT
 62
   178
 10
93.17997055555556
 20
153.6197291666666
 30
0.0
 11
93.17997055555556
 21
153.6348986111111
 31
0.0
  0
LINE
  5
27C
  8
DEFAULT
 62
   178
 10
93.17997055555556
 20
153.6197291666666
 30
0.0
 11
93.17997055555556
 21
152.7617736111111
 31
0.0
  0
LINE
  5
27D
  8
DEFAULT
 62
   178
 10
93.17997055555556
 20
152.7463572222222
 30
0.0
 11
93.17997055555556
 21
152.7615266666667
 31
0.0
  0
LINE
  5
27E
  8
DEFAULT
 62
   178
 10
93.11925749999999
 20
149.2378058333333
 30
0.0
 11
93.17993527777776
 21
149.2910752777777
 31
0.0
  0
LINE
  5
27F
  8
DEFAULT
 62
   178
 10
94.75963888888889
 20
143.6559794444444
 30
0.0
 11
94.75187777777779
 21
143.5268627777778
 31
0.0
  0
LINE
  5
280
  8
DEFAULT
 62
   178
 10
93.09650333333335
 20
152.0629561111111
 30
0.0
 11
93.04323388888889
 21
152.1388033333334
 31
0.0
  0
LINE
  5
281
  8
DEFAULT
 62
   178
 10
92.95207611111108
 20
143.5192427777777
 30
0.0
 11
94.75970944444443
 21
143.6561205555555
 31
0.0
  0
LINE
  5
282
  8
DEFAULT
 62
   178
 10
94.59249277777776
 20
143.5192427777777
 30
0.0
 11
92.9520761111111
 21
143.5192427777777
 31
0.0
  0
LINE
  5
283
  8
DEFAULT
 62
   178
 10
92.85347472222222
 20
116.9086858333333
 30
0.0
 11
94.63041638888888
 21
116.9086858333333
 31
0.0
  0
LINE
  5
284
  8
DEFAULT
 62
   178
 10
91.45605138888888
 20
117.0301825
 30
0.0
 11
91.47122083333332
 21
118.7919547222223
 31
0.0
  0
LINE
  5
285
  8
DEFAULT
 62
   178
 10
91.41805722222222
 20
116.7719491666666
 30
0.0
 11
91.41029611111111
 21
111.7826130555555
 31
0.0
  0
LINE
  5
286
  8
DEFAULT
 62
   178
 10
91.35730888888888
 20
111.2661111111111
 30
0.0
 11
91.41022555555554
 21
111.4940055555555
 31
0.0
  0
LINE
  5
287
  8
DEFAULT
 62
   178
 10
91.17513444444442
 20
118.9136277777777
 30
0.0
 11
91.15996499999997
 21
117.2354638888889
 31
0.0
  0
LINE
  5
288
  8
DEFAULT
 62
   178
 10
91.35730888888888
 20
111.2661111111111
 30
0.0
 11
92.60296722222222
 21
111.2661111111111
 31
0.0
  0
LINE
  5
289
  8
DEFAULT
 62
   178
 10
91.75989888888888
 20
119.3844802777778
 30
0.0
 11
91.77506833333334
 21
119.3844802777778
 31
0.0
  0
LINE
  5
28A
  8
DEFAULT
 62
   178
 10
92.07122527777777
 20
119.0882880555556
 30
0.0
 11
92.07122527777777
 21
119.0731186111111
 31
0.0
  0
LINE
  5
28B
  8
DEFAULT
 62
   178
 10
93.77239027777776
 20
143.6559794444444
 30
0.0
 11
92.45829305555554
 21
143.5572016666667
 31
0.0
  0
LINE
  5
28C
  8
DEFAULT
 62
   178
 10
92.43575055555556
 20
143.6559794444444
 30
0.0
 11
93.77242555555554
 21
143.6559794444444
 31
0.0
  0
LINE
  5
28D
  8
DEFAULT
 62
   178
 10
91.41036666666665
 20
148.9339936111111
 30
0.0
 11
91.35745
 21
149.1541269444444
 31
0.0
  0
LINE
  5
28E
  8
DEFAULT
 62
   178
 10
91.41036666666665
 20
148.9339936111111
 30
0.0
 11
91.41036666666665
 21
148.6454213888889
 31
0.0
  0
LINE
  5
28F
  8
DEFAULT
 62
   178
 10
91.41036666666663
 20
148.6453508333333
 30
0.0
 11
91.41812777777774
 21
143.6560147222222
 31
0.0
  0
LINE
  5
290
  8
DEFAULT
 62
   178
 10
91.11424499999998
 20
148.6302166666667
 30
0.0
 11
91.11424499999998
 21
143.3674777777778
 31
0.0
  0
LINE
  5
291
  8
DEFAULT
 62
   178
 10
91.45605138888888
 20
143.4888333333333
 30
0.0
 11
91.45605138888888
 21
143.3978166666667
 31
0.0
  0
LINE
  5
292
  8
DEFAULT
 62
   178
 10
91.45605138888888
 20
143.4888333333333
 30
0.0
 11
91.41795138888888
 21
143.65605
 31
0.0
  0
LINE
  5
293
  8
DEFAULT
 62
   178
 10
92.43575055555556
 20
143.6559794444444
 30
0.0
 11
91.41798666666666
 21
143.6559794444444
 31
0.0
  0
LINE
  5
294
  8
DEFAULT
 62
   178
 10
92.45839888888888
 20
143.5573427777778
 30
0.0
 11
92.43582111111108
 21
143.6561205555555
 31
0.0
  0
LINE
  5
295
  8
DEFAULT
 62
   178
 10
92.70153333333333
 20
150.0580141666667
 30
0.0
 11
93.043375
 21
150.1871308333333
 31
0.0
  0
LINE
  5
296
  8
DEFAULT
 62
   178
 10
93.09650333333333
 20
150.2706333333333
 30
0.0
 11
92.75466166666666
 21
150.1337555555556
 31
0.0
  0
LINE
  5
297
  8
DEFAULT
 62
   178
 10
93.09650333333333
 20
152.0629561111111
 30
0.0
 11
92.75466166666666
 21
152.1920727777778
 31
0.0
  0
LINE
  5
298
  8
DEFAULT
 62
   178
 10
91.34975944444444
 20
156.3840605555555
 30
0.0
 11
91.34975944444444
 21
156.1790966666667
 31
0.0
  0
LINE
  5
299
  8
DEFAULT
 62
   178
 10
91.34975944444446
 20
156.1789908333333
 30
0.0
 11
91.3571677777778
 21
149.1541269444444
 31
0.0
  0
LINE
  5
29A
  8
DEFAULT
 62
   178
 10
91.05356722222221
 20
148.8656958333333
 30
0.0
 11
91.05356722222221
 21
156.1713708333333
 31
0.0
  0
LINE
  5
29B
  8
DEFAULT
 62
   178
 10
91.05356722222217
 20
148.8656958333333
 30
0.0
 11
91.11424499999998
 21
148.6300402777777
 31
0.0
  0
LINE
  5
29C
  8
DEFAULT
 62
   178
 10
91.34975944444444
 20
156.4675983333333
 30
0.0
 11
91.34975944444444
 21
156.38399
 31
0.0
  0
LINE
  5
29D
  8
DEFAULT
 62
   178
 10
92.75473222222224
 20
150.1338966666667
 30
0.0
 11
92.70146277777779
 21
150.0580494444444
 31
0.0
  0
LINE
  5
29E
  8
DEFAULT
 62
   178
 10
92.67112388888887
 20
152.1388738888889
 30
0.0
 11
92.67112388888887
 21
150.1947155555555
 31
0.0
  0
LINE
  5
29F
  8
DEFAULT
 62
   178
 10
92.67112388888886
 20
152.1388738888888
 30
0.0
 11
92.6178544444444
 21
152.2224822222222
 31
0.0
  0
LINE
  5
2A0
  8
DEFAULT
 62
   178
 10
93.12680694444443
 20
152.1995869444444
 30
0.0
 11
93.12680694444443
 21
155.5636758333333
 31
0.0
  0
LINE
  5
2A1
  8
DEFAULT
 62
   178
 10
92.7547322222222
 20
152.1920375
 30
0.0
 11
92.70146277777775
 21
152.2756458333333
 31
0.0
  0
LINE
  5
2A2
  8
DEFAULT
 62
   178
 10
93.17997055555556
 20
155.5107591666666
 30
0.0
 11
93.12670111111109
 21
155.5636758333333
 31
0.0
  0
LINE
  5
2A3
  8
DEFAULT
 62
   178
 10
93.23313416666666
 20
156.1789908333333
 30
0.0
 11
91.3496536111111
 21
156.1789908333333
 31
0.0
  0
LINE
  5
2A4
  8
DEFAULT
 62
   178
 10
92.61796027777778
 20
150.1111777777778
 30
0.0
 11
92.61796027777778
 21
152.2222
 31
0.0
  0
LINE
  5
2A5
  8
DEFAULT
 62
   178
 10
92.67112388888886
 20
150.194645
 30
0.0
 11
92.61785444444439
 21
150.1110366666666
 31
0.0
  0
LINE
  5
2A6
  8
DEFAULT
 62
   178
 10
91.34975944444444
 20
156.4675983333333
 30
0.0
 11
93.23324
 21
156.4675983333333
 31
0.0
  0
LINE
  5
2A7
  8
DEFAULT
 62
   178
 10
92.70153333333334
 20
152.2755047222223
 30
0.0
 11
93.04337500000001
 21
152.1389797222222
 31
0.0
  0
LINE
  5
2A8
  8
DEFAULT
 62
   178
 10
93.23313416666666
 20
156.4675983333333
 30
0.0
 11
93.23313416666666
 21
156.1790261111111
 31
0.0
  0
LINE
  5
2A9
  8
DEFAULT
 62
   178
 10
93.12680694444443
 20
155.5638169444444
 30
0.0
 11
93.24816249999998
 21
155.5638169444444
 31
0.0
  0
LINE
  5
2AA
  8
DEFAULT
 62
   178
 10
93.23313416666667
 20
156.1789908333333
 30
0.0
 11
93.24830361111113
 21
155.5637463888889
 31
0.0
  0
LINE
  5
2AB
  8
DEFAULT
 62
   178
 10
94.91154499999999
 20
156.3081427777778
 30
0.0
 11
94.91154499999999
 21
156.1867872222222
 31
0.0
  0
LINE
  5
2AC
  8
DEFAULT
 62
   178
 10
94.888685
 20
155.5638169444444
 30
0.0
 11
94.91161555555554
 21
156.1868225
 31
0.0
  0
LINE
  5
2AD
  8
DEFAULT
 62
   178
 10
94.888685
 20
155.5638169444444
 30
0.0
 11
94.888685
 21
155.5183086111111
 31
0.0
  0
LINE
  5
2AE
  8
DEFAULT
 62
   178
 10
95.50378833333333
 20
156.4675983333333
 30
0.0
 11
95.50378833333333
 21
156.1790261111111
 31
0.0
  0
LINE
  5
2AF
  8
DEFAULT
 62
   178
 10
95.48099888888889
 20
155.5638169444445
 30
0.0
 11
95.50392944444447
 21
156.1790613888889
 31
0.0
  0
LINE
  5
2B0
  8
DEFAULT
 62
   178
 10
93.82558916666667
 20
156.1866813888889
 30
0.0
 11
93.81782805555557
 21
156.3080369444444
 31
0.0
  0
LINE
  5
2B1
  8
DEFAULT
 62
   178
 10
93.82558916666665
 20
156.1866813888888
 30
0.0
 11
93.84816694444443
 21
155.5562675
 31
0.0
  0
LINE
  5
2B2
  8
DEFAULT
 62
   178
 10
93.84816694444443
 20
155.5182380555555
 30
0.0
 11
93.84816694444443
 21
155.5563380555555
 31
0.0
  0
LINE
  5
2B3
  8
DEFAULT
 62
   178
 10
91.35730888888888
 20
111.2661111111111
 30
0.0
 11
91.34990055555554
 21
104.2412472222222
 31
0.0
  0
LINE
  5
2B4
  8
DEFAULT
 62
   178
 10
91.11424499999997
 20
111.7901625
 30
0.0
 11
91.05356722222217
 21
111.5545069444444
 31
0.0
  0
LINE
  5
2B5
  8
DEFAULT
 62
   178
 10
92.29901388888888
 20
103.9300972222222
 30
0.0
 11
92.46623055555554
 21
103.9300972222222
 31
0.0
  0
LINE
  5
2B6
  8
DEFAULT
 62
   178
 10
91.34975944444444
 20
104.2413883333333
 30
0.0
 11
91.34975944444444
 21
103.9602244444444
 31
0.0
  0
LINE
  5
2B7
  8
DEFAULT
 62
   178
 10
91.05356722222221
 20
104.2565225
 30
0.0
 11
91.05356722222221
 21
111.5547891666667
 31
0.0
  0
LINE
  5
2B8
  8
DEFAULT
 62
   178
 10
93.30153777777778
 20
103.9300972222222
 30
0.0
 11
95.07847944444444
 21
103.9300972222222
 31
0.0
  0
LINE
  5
2B9
  8
DEFAULT
 62
   178
 10
91.17513444444444
 20
118.9136277777778
 30
0.0
 11
91.17513444444444
 21
141.506575
 31
0.0
  0
LINE
  5
2BA
  8
DEFAULT
 62
   178
 10
90.95493055555555
 20
129.0672777777778
 30
0.0
 11
90.95493055555555
 21
125.6724972222222
 31
0.0
  0
LINE
  5
2BB
  8
DEFAULT
 62
   178
 10
90.97764944444444
 20
125.6726383333333
 30
0.0
 11
90.97764944444444
 21
129.0674188888889
 31
0.0
  0
LINE
  5
2BC
  8
DEFAULT
 62
   178
 10
91.15985916666664
 20
117.2353227777778
 30
0.0
 11
91.1143508333333
 21
117.0532894444444
 31
0.0
  0
LINE
  5
2BD
  8
DEFAULT
 62
   178
 10
90.95493055555555
 20
129.0672777777778
 30
0.0
 11
90.97750833333333
 21
129.0672777777778
 31
0.0
  0
LINE
  5
2BE
  8
DEFAULT
 62
   178
 10
90.97764944444444
 20
125.6726383333333
 30
0.0
 11
90.95507166666665
 21
125.6726383333333
 31
0.0
  0
LINE
  5
2BF
  8
DEFAULT
 62
   178
 10
92.29901388888885
 20
116.8859669444444
 30
0.0
 11
93.8480611111111
 21
116.7720197222222
 31
0.0
  0
LINE
  5
2C0
  8
DEFAULT
 62
   178
 10
91.11424499999998
 20
117.0531130555555
 30
0.0
 11
91.11424499999998
 21
111.7900213888889
 31
0.0
  0
LINE
  5
2C1
  8
DEFAULT
 62
   178
 10
91.41036666666665
 20
111.7825777777778
 30
0.0
 11
91.41036666666665
 21
111.4940055555555
 31
0.0
  0
LINE
  5
2C2
  8
DEFAULT
 62
   178
 10
91.41805722222222
 20
116.7719491666666
 30
0.0
 11
92.29894333333334
 21
116.7719491666666
 31
0.0
  0
LINE
  5
2C3
  8
DEFAULT
 62
   178
 10
91.41805722222225
 20
116.7719491666667
 30
0.0
 11
91.45615722222225
 21
116.9391658333333
 31
0.0
  0
LINE
  5
2C4
  8
DEFAULT
 62
   178
 10
92.29901388888888
 20
116.8859669444444
 30
0.0
 11
92.29901388888888
 21
116.7720197222222
 31
0.0
  0
LINE
  5
2C5
  8
DEFAULT
 62
   178
 10
91.45605138888888
 20
117.0301825
 30
0.0
 11
91.45605138888888
 21
116.9391658333333
 31
0.0
  0
LINE
  5
2C6
  8
DEFAULT
 62
   178
 10
90.95493055555555
 20
134.7174019444444
 30
0.0
 11
90.95493055555555
 21
131.3226213888889
 31
0.0
  0
LINE
  5
2C7
  8
DEFAULT
 62
   178
 10
90.97764944444444
 20
131.3227272222222
 30
0.0
 11
90.97764944444444
 21
134.7175077777778
 31
0.0
  0
LINE
  5
2C8
  8
DEFAULT
 62
   178
 10
91.114245
 20
143.3674777777778
 30
0.0
 11
91.15975333333333
 21
143.1850916666667
 31
0.0
  0
LINE
  5
2C9
  8
DEFAULT
 62
   178
 10
90.97764944444444
 20
131.3227272222222
 30
0.0
 11
90.95507166666665
 21
131.3227272222222
 31
0.0
  0
LINE
  5
2CA
  8
DEFAULT
 62
   178
 10
90.95493055555555
 20
134.7174019444444
 30
0.0
 11
90.97750833333333
 21
134.7174019444444
 31
0.0
  0
LINE
  5
2CB
  8
DEFAULT
 62
   178
 10
90.92437999999997
 20
156.5739255555555
 30
0.0
 11
91.05349666666663
 21
156.1714061111111
 31
0.0
  0
LINE
  5
2CC
  8
DEFAULT
 62
   178
 10
91.34975944444446
 20
156.4675983333333
 30
0.0
 11
91.22064277777778
 21
156.8701177777778
 31
0.0
  0
LINE
  5
2CD
  8
DEFAULT
 62
   178
 10
95.20766666666665
 20
156.589095
 30
0.0
 11
95.20766666666665
 21
156.4751477777778
 31
0.0
  0
LINE
  5
2CE
  8
DEFAULT
 62
   178
 10
93.52936166666665
 20
156.4751830555555
 30
0.0
 11
93.52936166666665
 21
156.5891302777777
 31
0.0
  0
LINE
  5
2CF
  8
DEFAULT
 62
   178
 10
95.50378833333333
 20
156.4675983333333
 30
0.0
 11
96.61997722222222
 21
156.4675983333333
 31
0.0
  0
LINE
  5
2D0
  8
DEFAULT
 62
   178
 10
96.62008305555554
 20
156.1789908333333
 30
0.0
 11
95.50389416666665
 21
156.1789908333333
 31
0.0
  0
LINE
  5
2D1
  8
DEFAULT
 62
   178
 10
96.62008305555554
 20
156.1789908333333
 30
0.0
 11
96.62008305555554
 21
156.4675630555555
 31
0.0
  0
LINE
  5
2D2
  8
DEFAULT
 62
   178
 10
96.91641638888888
 20
156.4751830555555
 30
0.0
 11
96.91641638888888
 21
156.5891302777777
 31
0.0
  0
LINE
  5
2D3
  8
DEFAULT
 62
   178
 10
96.62008305555554
 20
156.1789908333333
 30
0.0
 11
96.64301361111109
 21
155.5637463888889
 31
0.0
  0
LINE
  5
2D4
  8
DEFAULT
 62
   178
 10
95.48099888888889
 20
155.5638169444444
 30
0.0
 11
96.64304888888888
 21
155.5638169444444
 31
0.0
  0
LINE
  5
2D5
  8
DEFAULT
 62
   178
 10
97.30366055555554
 20
116.7719491666667
 30
0.0
 11
95.47344944444446
 21
116.9088269444444
 31
0.0
  0
LINE
  5
2D6
  8
DEFAULT
 62
   178
 10
95.92158305555556
 20
103.9300972222222
 30
0.0
 11
97.69852472222222
 21
103.9300972222222
 31
0.0
  0
LINE
  5
2D7
  8
DEFAULT
 62
   178
 10
95.47344944444444
 20
116.9086858333333
 30
0.0
 11
97.2503911111111
 21
116.9086858333333
 31
0.0
  0
LINE
  5
2D8
  8
DEFAULT
 62
   178
 10
97.30366055555554
 20
116.7719491666666
 30
0.0
 11
97.30366055555554
 21
116.9010658333333
 31
0.0
  0
LINE
  5
2D9
  8
DEFAULT
 62
   178
 10
95.5720861111111
 20
143.5192427777777
 30
0.0
 11
97.37195833333332
 21
143.6561205555555
 31
0.0
  0
LINE
  5
2DA
  8
DEFAULT
 62
   178
 10
97.37199361111111
 20
143.6559794444444
 30
0.0
 11
96.39232972222223
 21
143.6559794444444
 31
0.0
  0
LINE
  5
2DB
  8
DEFAULT
 62
   178
 10
97.21260861111111
 20
143.5192427777777
 30
0.0
 11
95.57219194444446
 21
143.5192427777777
 31
0.0
  0
LINE
  5
2DC
  8
DEFAULT
 62
   178
 10
97.37199361111111
 20
143.6559794444444
 30
0.0
 11
97.37199361111111
 21
143.5268627777778
 31
0.0
  0
LINE
  5
2DD
  8
DEFAULT
 62
   178
 10
97.21260861111111
 20
156.1866813888889
 30
0.0
 11
97.23553916666667
 21
155.5562675
 31
0.0
  0
LINE
  5
2DE
  8
DEFAULT
 62
   178
 10
97.23536277777777
 20
155.5182380555555
 30
0.0
 11
97.23536277777777
 21
155.5563380555555
 31
0.0
  0
LINE
  5
2DF
  8
DEFAULT
 62
   178
 10
97.21260861111111
 20
156.1866813888889
 30
0.0
 11
97.21260861111111
 21
156.3080369444444
 31
0.0
  0
LINE
  5
2E0
  8
DEFAULT
 62
   178
 10
98.30618444444443
 20
156.3081427777777
 30
0.0
 11
98.29877611111108
 21
156.1867872222222
 31
0.0
  0
LINE
  5
2E1
  8
DEFAULT
 62
   178
 10
98.27566916666669
 20
155.5562322222222
 30
0.0
 11
98.29859972222224
 21
156.1866461111111
 31
0.0
  0
LINE
  5
2E2
  8
DEFAULT
 62
   178
 10
98.27566916666666
 20
155.5562322222222
 30
0.0
 11
98.27566916666666
 21
155.5181322222222
 31
0.0
  0
LINE
  5
2E3
  8
DEFAULT
 62
   178
 10
98.59472138888887
 20
156.589095
 30
0.0
 11
98.6021297222222
 21
156.4751477777777
 31
0.0
  0
LINE
  5
2E4
  8
DEFAULT
 62
   178
 10
98.8756736111111
 20
155.5638169444445
 30
0.0
 11
98.89084305555554
 21
156.1790613888889
 31
0.0
  0
LINE
  5
2E5
  8
DEFAULT
 62
   178
 10
98.89094888888889
 20
156.4675983333333
 30
0.0
 11
98.89094888888889
 21
156.1790261111111
 31
0.0
  0
LINE
  5
2E6
  8
DEFAULT
 62
   178
 10
119.7602238888889
 20
156.7029716666667
 30
0.0
 11
116.0236016666667
 21
156.4902466666666
 31
0.0
  0
LINE
  5
2E7
  8
DEFAULT
 62
   178
 10
113.4037680555556
 20
156.4903877777778
 30
0.0
 11
117.1477986111111
 21
156.7031127777778
 31
0.0
  0
LINE
  5
2E8
  8
DEFAULT
 62
   178
 10
118.0589177777778
 20
148.9644383333333
 30
0.0
 11
120.420765
 21
149.1464716666667
 31
0.0
  0
LINE
  5
2E9
  8
DEFAULT
 62
   178
 10
121.8789719444444
 20
156.5739255555555
 30
0.0
 11
121.8789719444444
 21
103.8541088888889
 31
0.0
  0
LINE
  5
2EA
  8
DEFAULT
 62
   178
 10
121.3245111111111
 20
118.7920605555556
 30
0.0
 11
121.3245111111111
 21
141.6358327777778
 31
0.0
  0
LINE
  5
2EB
  8
DEFAULT
 62
   178
 10
117.4058908333333
 20
116.7719491666666
 30
0.0
 11
118.2412686111111
 21
116.7719491666666
 31
0.0
  0
LINE
  5
2EC
  8
DEFAULT
 62
   178
 10
117.9451469444444
 20
149.1541975
 30
0.0
 11
118.7956941666666
 21
149.1541975
 31
0.0
  0
LINE
  5
2ED
  8
DEFAULT
 62
   178
 10
118.2488180555555
 20
143.5192427777777
 30
0.0
 11
118.2414097222222
 21
143.6561205555555
 31
0.0
  0
LINE
  5
2EE
  8
DEFAULT
 62
   178
 10
118.2412686111111
 20
143.6559794444444
 30
0.0
 11
117.4058908333333
 21
143.6559794444444
 31
0.0
  0
LINE
  5
2EF
  8
DEFAULT
 62
   178
 10
118.8032436111111
 20
149.0251513888889
 30
0.0
 11
118.7958352777778
 21
149.1542680555555
 31
0.0
  0
LINE
  5
2F0
  8
DEFAULT
 62
   178
 10
118.5982091666666
 20
129.2722416666666
 30
0.0
 11
118.5982091666666
 21
130.4342916666666
 31
0.0
  0
LINE
  5
2F1
  8
DEFAULT
 62
   178
 10
118.5982091666666
 20
133.4416163888889
 30
0.0
 11
118.5982091666666
 21
134.6033136111111
 31
0.0
  0
LINE
  5
2F2
  8
DEFAULT
 62
   178
 10
120.0184219444444
 20
143.6559794444444
 30
0.0
 11
118.1882108333333
 21
143.5191016666667
 31
0.0
  0
LINE
  5
2F3
  8
DEFAULT
 62
   178
 10
121.3853652777778
 20
143.6559794444444
 30
0.0
 11
120.0183513888889
 21
143.6559794444444
 31
0.0
  0
LINE
  5
2F4
  8
DEFAULT
 62
   178
 10
121.3397863888889
 20
143.3977813888889
 30
0.0
 11
121.3397863888889
 21
143.4887980555555
 31
0.0
  0
LINE
  5
2F5
  8
DEFAULT
 62
   178
 10
121.3853652777778
 20
143.6559794444445
 30
0.0
 11
121.3398569444444
 21
143.4887627777778
 31
0.0
  0
LINE
  5
2F6
  8
DEFAULT
 62
   178
 10
120.3676719444445
 20
143.6179852777778
 30
0.0
 11
120.3450941666667
 21
143.5192075
 31
0.0
  0
LINE
  5
2F7
  8
DEFAULT
 62
   178
 10
119.0311380555556
 20
143.5192427777778
 30
0.0
 11
120.3678130555556
 21
143.6180205555555
 31
0.0
  0
LINE
  5
2F8
  8
DEFAULT
 62
   178
 10
120.3449530555555
 20
143.5192427777777
 30
0.0
 11
119.0312086111111
 21
143.5192427777777
 31
0.0
  0
LINE
  5
2F9
  8
DEFAULT
 62
   178
 10
121.3853652777778
 20
143.6559794444444
 30
0.0
 11
121.3853652777778
 21
148.6453155555556
 31
0.0
  0
LINE
  5
2FA
  8
DEFAULT
 62
   178
 10
121.4461136111111
 20
149.1541975
 30
0.0
 11
121.3854358333333
 21
148.9340641666666
 31
0.0
  0
LINE
  5
2FB
  8
DEFAULT
 62
   178
 10
121.3853652777778
 20
148.6453508333333
 30
0.0
 11
121.3853652777778
 21
148.9339230555555
 31
0.0
  0
LINE
  5
2FC
  8
DEFAULT
 62
   178
 10
120.4056661111111
 20
149.0783502777778
 30
0.0
 11
118.924705
 21
148.9644030555556
 31
0.0
  0
LINE
  5
2FD
  8
DEFAULT
 62
   178
 10
120.4056661111111
 20
149.0783502777778
 30
0.0
 11
120.3753272222222
 21
148.9644030555556
 31
0.0
  0
LINE
  5
2FE
  8
DEFAULT
 62
   178
 10
118.924705
 20
148.9644383333333
 30
0.0
 11
120.3753272222222
 21
148.9644383333333
 31
0.0
  0
LINE
  5
2FF
  8
DEFAULT
 62
   178
 10
120.4207297222222
 20
149.1541975
 30
0.0
 11
121.4462547222222
 21
149.1541975
 31
0.0
  0
LINE
  5
300
  8
DEFAULT
 62
   178
 10
120.4207297222222
 20
149.1541975
 30
0.0
 11
120.4207297222222
 21
149.1467891666667
 31
0.0
  0
LINE
  5
301
  8
DEFAULT
 62
   178
 10
121.6283586111111
 20
118.9136277777778
 30
0.0
 11
121.6283586111111
 21
141.506575
 31
0.0
  0
LINE
  5
302
  8
DEFAULT
 62
   178
 10
120.7321972222222
 20
119.0731538888889
 30
0.0
 11
120.7321972222222
 21
119.0883233333333
 31
0.0
  0
LINE
  5
303
  8
DEFAULT
 62
   178
 10
121.0435941666667
 20
141.0358636111111
 30
0.0
 11
121.0435941666667
 21
119.3844802777778
 31
0.0
  0
LINE
  5
304
  8
DEFAULT
 62
   178
 10
121.0283894444444
 20
141.0358636111111
 30
0.0
 11
121.0283894444444
 21
119.3844802777778
 31
0.0
  0
LINE
  5
305
  8
DEFAULT
 62
   178
 10
121.0283894444444
 20
119.3844802777778
 30
0.0
 11
121.0435588888889
 21
119.3844802777778
 31
0.0
  0
LINE
  5
306
  8
DEFAULT
 62
   178
 10
121.7423058333333
 20
148.8656958333333
 30
0.0
 11
121.7497141666666
 21
156.1713708333333
 31
0.0
  0
LINE
  5
307
  8
DEFAULT
 62
   178
 10
121.6891775
 20
148.6302166666667
 30
0.0
 11
121.6817691666667
 21
143.3674777777778
 31
0.0
  0
LINE
  5
308
  8
DEFAULT
 62
   178
 10
121.4461136111111
 20
149.1541975
 30
0.0
 11
121.4461136111111
 21
156.1790613888889
 31
0.0
  0
LINE
  5
309
  8
DEFAULT
 62
   178
 10
121.6891775
 20
148.6302166666667
 30
0.0
 11
121.7424469444444
 21
148.8658722222222
 31
0.0
  0
LINE
  5
30A
  8
DEFAULT
 62
   178
 10
121.4461136111111
 20
156.3840605555555
 30
0.0
 11
121.4461136111111
 21
156.4676688888889
 31
0.0
  0
LINE
  5
30B
  8
DEFAULT
 62
   178
 10
121.4461136111111
 20
156.1789908333333
 30
0.0
 11
121.4461136111111
 21
156.3839547222222
 31
0.0
  0
LINE
  5
30C
  8
DEFAULT
 62
   178
 10
120.4739991666666
 20
156.5511008333333
 30
0.0
 11
119.4791658333333
 21
156.4904230555555
 31
0.0
  0
LINE
  5
30D
  8
DEFAULT
 62
   178
 10
120.4512802777778
 20
156.4903877777778
 30
0.0
 11
120.4738580555555
 21
156.5510655555555
 31
0.0
  0
LINE
  5
30E
  8
DEFAULT
 62
   178
 10
119.4791658333333
 20
156.4903877777778
 30
0.0
 11
120.4514213888889
 21
156.4903877777778
 31
0.0
  0
LINE
  5
30F
  8
DEFAULT
 62
   178
 10
118.6362033333333
 20
156.4903877777778
 30
0.0
 11
116.8589088888889
 21
156.4903877777778
 31
0.0
  0
LINE
  5
310
  8
DEFAULT
 62
   178
 10
121.8182236111111
 20
129.0595872222222
 30
0.0
 11
121.8182236111111
 21
125.6725677777778
 31
0.0
  0
LINE
  5
311
  8
DEFAULT
 62
   178
 10
121.8182236111111
 20
129.0595872222222
 30
0.0
 11
121.8411541666666
 21
129.0673483333333
 31
0.0
  0
LINE
  5
312
  8
DEFAULT
 62
   178
 10
121.8410483333333
 20
125.6726383333333
 30
0.0
 11
121.8181177777778
 21
125.6726383333333
 31
0.0
  0
LINE
  5
313
  8
DEFAULT
 62
   178
 10
121.8410483333333
 20
125.6726383333333
 30
0.0
 11
121.8410483333333
 21
129.0674188888889
 31
0.0
  0
LINE
  5
314
  8
DEFAULT
 62
   178
 10
121.8182236111111
 20
134.7174019444444
 30
0.0
 11
121.8182236111111
 21
131.3303825
 31
0.0
  0
LINE
  5
315
  8
DEFAULT
 62
   178
 10
121.8182236111111
 20
134.7174019444444
 30
0.0
 11
121.8411541666667
 21
134.7174019444444
 31
0.0
  0
LINE
  5
316
  8
DEFAULT
 62
   178
 10
121.8410483333333
 20
131.3227272222222
 30
0.0
 11
121.8410483333333
 21
134.7175077777778
 31
0.0
  0
LINE
  5
317
  8
DEFAULT
 62
   178
 10
121.8410483333333
 20
131.3227272222221
 30
0.0
 11
121.8181177777777
 21
131.3304883333333
 31
0.0
  0
LINE
  5
318
  8
DEFAULT
 62
   178
 10
121.6359786111111
 20
143.1851269444444
 30
0.0
 11
121.6814869444445
 21
143.3675130555555
 31
0.0
  0
LINE
  5
319
  8
DEFAULT
 62
   178
 10
121.7498905555555
 20
156.1714061111111
 30
0.0
 11
121.8790072222222
 21
156.5739255555556
 31
0.0
  0
LINE
  5
31A
  8
DEFAULT
 62
   178
 10
115.6288080555556
 20
143.5192427777778
 30
0.0
 11
115.6210469444445
 21
143.6561205555555
 31
0.0
  0
LINE
  5
31B
  8
DEFAULT
 62
   178
 10
116.8590147222222
 20
156.4903877777778
 30
0.0
 11
120.5194369444444
 21
156.7031127777778
 31
0.0
  0
LINE
  5
31C
  8
DEFAULT
 62
   178
 10
117.1476927777778
 20
156.7029716666667
 30
0.0
 11
115.36299
 21
156.7029716666667
 31
0.0
  0
LINE
  5
31D
  8
DEFAULT
 62
   178
 10
118.6362033333333
 20
156.4903877777778
 30
0.0
 11
120.489345
 21
156.5965738888889
 31
0.0
  0
LINE
  5
31E
  8
DEFAULT
 62
   178
 10
117.9831411111111
 20
156.7029716666667
 30
0.0
 11
119.7600827777778
 21
156.7029716666667
 31
0.0
  0
LINE
  5
31F
  8
DEFAULT
 62
   178
 10
120.4892744444444
 20
156.5966797222222
 30
0.0
 11
120.5196133333333
 21
156.7028658333333
 31
0.0
  0
LINE
  5
320
  8
DEFAULT
 62
   178
 10
117.4058908333333
 20
143.6559794444444
 30
0.0
 11
115.5756797222222
 21
143.5191016666667
 31
0.0
  0
LINE
  5
321
  8
DEFAULT
 62
   178
 10
118.188105
 20
143.5192427777777
 30
0.0
 11
116.4108105555556
 21
143.5192427777777
 31
0.0
  0
LINE
  5
322
  8
DEFAULT
 62
   178
 10
115.4466336111111
 20
148.9644383333333
 30
0.0
 11
117.9450058333333
 21
149.1542327777778
 31
0.0
  0
LINE
  5
323
  8
DEFAULT
 62
   178
 10
118.7956941666667
 20
149.1541975
 30
0.0
 11
116.3124913888889
 21
148.9644030555556
 31
0.0
  0
LINE
  5
324
  8
DEFAULT
 62
   178
 10
116.312315
 20
148.9644383333333
 30
0.0
 11
118.0589177777778
 21
148.9644383333333
 31
0.0
  0
LINE
  5
325
  8
DEFAULT
 62
   178
 10
116.4109516666667
 20
143.5192427777778
 30
0.0
 11
118.2411627777777
 21
143.6561205555555
 31
0.0
  0
LINE
  5
326
  8
DEFAULT
 62
   178
 10
118.5982091666666
 20
134.60349
 30
0.0
 11
115.9781286111111
 21
134.60349
 31
0.0
  0
LINE
  5
327
  8
DEFAULT
 62
   178
 10
115.9781991666667
 20
134.60349
 30
0.0
 11
115.9781991666667
 21
133.4417927777778
 31
0.0
  0
LINE
  5
328
  8
DEFAULT
 62
   178
 10
115.9781991666667
 20
133.4416163888889
 30
0.0
 11
118.5982797222222
 21
133.4416163888889
 31
0.0
  0
LINE
  5
329
  8
DEFAULT
 62
   178
 10
115.9781991666667
 20
130.4343622222222
 30
0.0
 11
115.9781991666667
 21
129.2723122222222
 31
0.0
  0
LINE
  5
32A
  8
DEFAULT
 62
   178
 10
118.5982091666666
 20
130.4343622222222
 30
0.0
 11
115.9781286111111
 21
130.4343622222222
 31
0.0
  0
LINE
  5
32B
  8
DEFAULT
 62
   178
 10
115.9781991666667
 20
129.2722416666666
 30
0.0
 11
118.5982797222222
 21
129.2722416666666
 31
0.0
  0
LINE
  5
32C
  8
DEFAULT
 62
   178
 10
113.7909063888889
 20
143.5192427777777
 30
0.0
 11
115.6211175
 21
143.6561205555555
 31
0.0
  0
LINE
  5
32D
  8
DEFAULT
 62
   178
 10
115.5756797222222
 20
143.5192427777777
 30
0.0
 11
113.7909769444444
 21
143.5192427777777
 31
0.0
  0
LINE
  5
32E
  8
DEFAULT
 62
   178
 10
115.6211175
 20
143.6559794444444
 30
0.0
 11
114.7857397222222
 21
143.6559794444444
 31
0.0
  0
LINE
  5
32F
  8
DEFAULT
 62
   178
 10
116.1680641666667
 20
149.0176019444444
 30
0.0
 11
116.1680641666667
 21
149.1541269444444
 31
0.0
  0
LINE
  5
330
  8
DEFAULT
 62
   178
 10
113.5555330555556
 20
149.0176019444444
 30
0.0
 11
113.5481247222222
 21
149.1541269444444
 31
0.0
  0
LINE
  5
331
  8
DEFAULT
 62
   178
 10
116.1680641666667
 20
149.1541975
 30
0.0
 11
113.6696919444444
 21
148.9644030555556
 31
0.0
  0
LINE
  5
332
  8
DEFAULT
 62
   178
 10
113.6695508333333
 20
148.9644383333333
 30
0.0
 11
115.4464925
 21
148.9644383333333
 31
0.0
  0
LINE
  5
333
  8
DEFAULT
 62
   178
 10
115.3249252777778
 20
149.1541975
 30
0.0
 11
116.1680641666667
 21
149.1541975
 31
0.0
  0
LINE
  5
334
  8
DEFAULT
 62
   178
 10
114.23904
 20
156.4903877777778
 30
0.0
 11
116.0237427777778
 21
156.4903877777778
 31
0.0
  0
LINE
  5
335
  8
DEFAULT
 62
   178
 10
117.9831411111111
 20
156.7029716666667
 30
0.0
 11
114.2391105555556
 21
156.4902466666667
 31
0.0
  0
LINE
  5
336
  8
DEFAULT
 62
   178
 10
117.9831411111111
 20
156.6042644444444
 30
0.0
 11
117.9831411111111
 21
156.7030422222222
 31
0.0
  0
LINE
  5
337
  8
DEFAULT
 62
   178
 10
115.37061
 20
156.6042644444444
 30
0.0
 11
115.3628488888889
 21
156.7030422222222
 31
0.0
  0
LINE
  5
338
  8
DEFAULT
 62
   178
 10
121.5828502777777
 20
156.8700472222222
 30
0.0
 11
121.4459725
 21
156.4675277777777
 31
0.0
  0
LINE
  5
339
  8
DEFAULT
 62
   178
 10
91.41036666666665
 20
111.7825777777778
 30
0.0
 11
121.3851888888889
 21
111.7825777777778
 31
0.0
  0
LINE
  5
33A
  8
DEFAULT
 62
   178
 10
110.9279383333333
 20
111.2661111111111
 30
0.0
 11
108.4369744444444
 21
111.4559055555555
 31
0.0
  0
LINE
  5
33B
  8
DEFAULT
 62
   178
 10
107.5940472222222
 20
111.4559055555556
 30
0.0
 11
110.0924194444444
 21
111.2661111111111
 31
0.0
  0
LINE
  5
33C
  8
DEFAULT
 62
   178
 10
97.84295194444444
 20
111.2661111111111
 30
0.0
 11
95.3442269444444
 21
111.4559055555555
 31
0.0
  0
LINE
  5
33D
  8
DEFAULT
 62
   178
 10
94.50902555555555
 20
111.4559055555555
 30
0.0
 11
97.00775055555556
 21
111.2661111111111
 31
0.0
  0
LINE
  5
33E
  8
DEFAULT
 62
   178
 10
95.22280083333335
 20
111.2661111111111
 30
0.0
 11
92.73183694444445
 21
111.4559055555555
 31
0.0
  0
LINE
  5
33F
  8
DEFAULT
 62
   178
 10
92.29901388888888
 20
111.4256372222222
 30
0.0
 11
94.38745833333331
 21
111.2661816666666
 31
0.0
  0
LINE
  5
340
  8
DEFAULT
 62
   178
 10
92.30645749999998
 20
111.4256372222222
 30
0.0
 11
92.29904916666665
 21
111.2887594444444
 31
0.0
  0
LINE
  5
341
  8
DEFAULT
 62
   178
 10
92.29901388888885
 20
111.2888652777777
 30
0.0
 11
92.60275555555555
 21
111.2659347222222
 31
0.0
  0
LINE
  5
342
  8
DEFAULT
 62
   178
 10
94.38742305555554
 20
111.2661111111111
 30
0.0
 11
95.22280083333331
 21
111.2661111111111
 31
0.0
  0
LINE
  5
343
  8
DEFAULT
 62
   178
 10
92.29901388888888
 20
111.2888652777778
 30
0.0
 11
92.29901388888888
 21
111.4257430555555
 31
0.0
  0
LINE
  5
344
  8
DEFAULT
 62
   178
 10
92.60282611111109
 20
111.2661111111111
 30
0.0
 11
92.61023444444443
 21
111.4026361111111
 31
0.0
  0
LINE
  5
345
  8
DEFAULT
 62
   178
 10
92.73197805555554
 20
111.4559055555555
 30
0.0
 11
94.5089197222222
 21
111.4559055555555
 31
0.0
  0
LINE
  5
346
  8
DEFAULT
 62
   178
 10
95.22280083333334
 20
111.2661111111111
 30
0.0
 11
95.23056194444445
 21
111.4026361111111
 31
0.0
  0
LINE
  5
347
  8
DEFAULT
 62
   178
 10
95.34440333333333
 20
111.4559055555555
 30
0.0
 11
97.12910611111111
 21
111.4559055555555
 31
0.0
  0
LINE
  5
348
  8
DEFAULT
 62
   178
 10
108.4370097222222
 20
111.4559055555555
 30
0.0
 11
110.2139513888889
 21
111.4559055555555
 31
0.0
  0
LINE
  5
349
  8
DEFAULT
 62
   178
 10
121.3853652777778
 20
111.4938997222222
 30
0.0
 11
91.41054305555554
 21
111.4938997222222
 31
0.0
  0
LINE
  5
34A
  8
DEFAULT
 62
   178
 10
91.45605138888888
 20
143.4888333333333
 30
0.0
 11
121.3398569444444
 21
143.4888333333333
 31
0.0
  0
LINE
  5
34B
  8
DEFAULT
 62
   178
 10
92.07122527777777
 20
141.3472252777778
 30
0.0
 11
120.7323030555555
 21
141.3472252777778
 31
0.0
  0
LINE
  5
34C
  8
DEFAULT
 62
   178
 10
92.07122527777777
 20
141.3320911111111
 30
0.0
 11
120.7323030555555
 21
141.3320911111111
 31
0.0
  0
LINE
  5
34D
  8
DEFAULT
 62
   178
 10
121.3397863888889
 20
143.3977813888889
 30
0.0
 11
91.45598083333334
 21
143.3977813888889
 31
0.0
  0
LINE
  5
34E
  8
DEFAULT
 62
   178
 10
121.3245111111111
 20
141.6358680555555
 30
0.0
 11
91.47104444444444
 21
141.6358680555555
 31
0.0
  0
LINE
  5
34F
  8
DEFAULT
 62
   178
 10
91.47122083333335
 20
141.6358680555556
 30
0.0
 11
91.4560513888889
 21
143.3976402777778
 31
0.0
  0
LINE
  5
350
  8
DEFAULT
 62
   178
 10
92.07122527777777
 20
141.3472252777778
 30
0.0
 11
92.07122527777777
 21
141.3320558333333
 31
0.0
  0
LINE
  5
351
  8
DEFAULT
 62
   178
 10
91.77503305555554
 20
141.0358636111111
 30
0.0
 11
91.7598636111111
 21
141.0358636111111
 31
0.0
  0
LINE
  5
352
  8
DEFAULT
 62
   178
 10
118.5982091666666
 20
137.6108852777778
 30
0.0
 11
118.5982091666666
 21
138.7729352777777
 31
0.0
  0
LINE
  5
353
  8
DEFAULT
 62
   178
 10
115.9781991666667
 20
137.6108852777778
 30
0.0
 11
118.5982797222222
 21
137.6108852777778
 31
0.0
  0
LINE
  5
354
  8
DEFAULT
 62
   178
 10
118.5982091666666
 20
138.7727941666666
 30
0.0
 11
115.9781286111111
 21
138.7727941666666
 31
0.0
  0
LINE
  5
355
  8
DEFAULT
 62
   178
 10
115.9781991666667
 20
138.7727941666666
 30
0.0
 11
115.9781991666667
 21
137.6107441666666
 31
0.0
  0
LINE
  5
356
  8
DEFAULT
 62
   178
 10
120.7321972222222
 20
141.3320911111111
 30
0.0
 11
120.7321972222222
 21
141.3472605555556
 31
0.0
  0
LINE
  5
357
  8
DEFAULT
 62
   178
 10
121.0435941666667
 20
141.0358636111111
 30
0.0
 11
121.0284247222222
 21
141.0358636111111
 31
0.0
  0
LINE
  5
358
  8
DEFAULT
 62
   178
 10
121.3397863888889
 20
143.3977813888889
 30
0.0
 11
121.3246169444445
 21
141.6360091666667
 31
0.0
  0
LINE
  5
359
  8
DEFAULT
 62
   178
 10
91.15985916666666
 20
143.1851269444444
 30
0.0
 11
91.17502861111112
 21
141.5066102777778
 31
0.0
  0
LINE
  5
35A
  8
DEFAULT
 62
   178
 10
121.6359786111111
 20
143.1851269444444
 30
0.0
 11
121.6282174999999
 21
141.5066102777778
 31
0.0
  0
LINE
  5
35B
  8
DEFAULT
 62
   178
 10
100.2503075
 20
153.6349691666667
 30
0.0
 11
100.2503075
 21
155.5106886111111
 31
0.0
  0
LINE
  5
35C
  8
DEFAULT
 62
   178
 10
100.2503075
 20
150.0655988888889
 30
0.0
 11
100.2577158333334
 21
149.2908988888889
 31
0.0
  0
LINE
  5
35D
  8
DEFAULT
 62
   178
 10
100.2577863888889
 20
152.7615972222222
 30
0.0
 11
100.2577863888889
 21
153.6195527777778
 31
0.0
  0
LINE
  5
35E
  8
DEFAULT
 62
   178
 10
100.2503075
 20
153.6349691666666
 30
0.0
 11
100.2577158333333
 21
153.6197997222222
 31
0.0
  0
LINE
  5
35F
  8
DEFAULT
 62
   178
 10
99.99203888888889
 20
143.6559794444444
 30
0.0
 11
99.98463055555554
 21
143.5268627777778
 31
0.0
  0
LINE
  5
360
  8
DEFAULT
 62
   178
 10
104.3132844444444
 20
143.6559794444444
 30
0.0
 11
102.4830733333333
 21
143.5191016666667
 31
0.0
  0
LINE
  5
361
  8
DEFAULT
 62
   178
 10
103.3260358333333
 20
143.5192427777777
 30
0.0
 11
105.1562469444444
 21
143.6561205555555
 31
0.0
  0
LINE
  5
362
  8
DEFAULT
 62
   178
 10
105.1030480555555
 20
143.5192427777777
 30
0.0
 11
103.3261063888889
 21
143.5192427777777
 31
0.0
  0
LINE
  5
363
  8
DEFAULT
 62
   178
 10
105.1562469444444
 20
143.6559794444444
 30
0.0
 11
104.3134608333333
 21
143.6559794444444
 31
0.0
  0
LINE
  5
364
  8
DEFAULT
 62
   178
 10
103.7740988888889
 20
156.4903877777778
 30
0.0
 11
105.5510405555555
 21
156.4903877777778
 31
0.0
  0
LINE
  5
365
  8
DEFAULT
 62
   178
 10
105.1562469444444
 20
143.5192427777777
 30
0.0
 11
105.1562469444444
 21
143.6561205555555
 31
0.0
  0
LINE
  5
366
  8
DEFAULT
 62
   178
 10
103.0829719444444
 20
149.0176019444444
 30
0.0
 11
103.0755636111111
 21
149.1541269444444
 31
0.0
  0
LINE
  5
367
  8
DEFAULT
 62
   178
 10
106.9333297222222
 20
143.6559794444444
 30
0.0
 11
105.1031186111111
 21
143.5191016666667
 31
0.0
  0
LINE
  5
368
  8
DEFAULT
 62
   178
 10
105.9384258333334
 20
143.5192427777778
 30
0.0
 11
107.7686369444444
 21
143.6561205555555
 31
0.0
  0
LINE
  5
369
  8
DEFAULT
 62
   178
 10
107.7686722222222
 20
143.6559794444444
 30
0.0
 11
106.9332944444444
 21
143.6559794444444
 31
0.0
  0
LINE
  5
36A
  8
DEFAULT
 62
   178
 10
106.3865594444444
 20
156.4903877777778
 30
0.0
 11
108.1712622222222
 21
156.4903877777778
 31
0.0
  0
LINE
  5
36B
  8
DEFAULT
 62
   178
 10
105.8169644444444
 20
148.9644383333333
 30
0.0
 11
107.5939061111111
 21
148.9644383333333
 31
0.0
  0
LINE
  5
36C
  8
DEFAULT
 62
   178
 10
107.7230933333333
 20
143.5192427777777
 30
0.0
 11
105.9383905555555
 21
143.5192427777777
 31
0.0
  0
LINE
  5
36D
  8
DEFAULT
 62
   178
 10
107.7763627777778
 20
143.5192427777778
 30
0.0
 11
107.7686016666667
 21
143.6561205555555
 31
0.0
  0
LINE
  5
36E
  8
DEFAULT
 62
   178
 10
105.7030877777778
 20
149.0176019444444
 30
0.0
 11
105.6953266666667
 21
149.1541269444444
 31
0.0
  0
LINE
  5
36F
  8
DEFAULT
 62
   178
 10
100.3110558333333
 20
155.5638169444444
 30
0.0
 11
100.3110558333333
 21
149.2378058333333
 31
0.0
  0
LINE
  5
370
  8
DEFAULT
 62
   178
 10
100.2957805555555
 20
151.8730911111111
 30
0.0
 11
100.2502722222222
 21
151.9111911111111
 31
0.0
  0
LINE
  5
371
  8
DEFAULT
 62
   178
 10
100.2503075
 20
151.9110852777778
 30
0.0
 11
100.2503075
 21
152.7464630555556
 31
0.0
  0
LINE
  5
372
  8
DEFAULT
 62
   178
 10
100.7058847222222
 20
143.5192427777778
 30
0.0
 11
102.5360958333333
 21
143.6561205555555
 31
0.0
  0
LINE
  5
373
  8
DEFAULT
 62
   178
 10
102.4830733333333
 20
143.5192427777777
 30
0.0
 11
100.7057788888889
 21
143.5192427777777
 31
0.0
  0
LINE
  5
374
  8
DEFAULT
 62
   178
 10
99.99203888888889
 20
143.6559794444444
 30
0.0
 11
101.6250472222222
 21
143.6559794444444
 31
0.0
  0
LINE
  5
375
  8
DEFAULT
 62
   178
 10
100.1364661111111
 20
153.6197291666666
 30
0.0
 11
100.2578216666667
 21
153.6197291666666
 31
0.0
  0
LINE
  5
376
  8
DEFAULT
 62
   178
 10
100.2503075
 20
153.6349691666667
 30
0.0
 11
100.1363602777778
 21
153.6349691666667
 31
0.0
  0
LINE
  5
377
  8
DEFAULT
 62
   178
 10
103.0754225
 20
149.1541975
 30
0.0
 11
100.5844586111111
 21
148.9644030555556
 31
0.0
  0
LINE
  5
378
  8
DEFAULT
 62
   178
 10
100.5844233333333
 20
148.9644383333333
 30
0.0
 11
102.361365
 21
148.9644383333333
 31
0.0
  0
LINE
  5
379
  8
DEFAULT
 62
   178
 10
100.5389855555555
 20
149.0251513888888
 30
0.0
 11
102.24008
 21
149.1542680555555
 31
0.0
  0
LINE
  5
37A
  8
DEFAULT
 62
   178
 10
100.4705113888889
 20
149.1541975
 30
0.0
 11
100.5389502777778
 21
149.0250808333333
 31
0.0
  0
LINE
  5
37B
  8
DEFAULT
 62
   178
 10
100.2577863888889
 20
149.2910752777778
 30
0.0
 11
100.3110558333333
 21
149.2378058333333
 31
0.0
  0
LINE
  5
37C
  8
DEFAULT
 62
   178
 10
100.2957805555556
 20
150.75662
 30
0.0
 11
100.2957805555556
 21
151.5768283333333
 31
0.0
  0
LINE
  5
37D
  8
DEFAULT
 62
   178
 10
100.2503075
 20
150.0655988888889
 30
0.0
 11
100.2503075
 21
150.4148488888889
 31
0.0
  0
LINE
  5
37E
  8
DEFAULT
 62
   178
 10
100.2503075
 20
150.4148841666667
 30
0.0
 11
100.2958158333334
 21
150.4603925
 31
0.0
  0
LINE
  5
37F
  8
DEFAULT
 62
   178
 10
103.1969897222222
 20
148.9644383333333
 30
0.0
 11
104.9816925
 21
148.9644383333333
 31
0.0
  0
LINE
  5
380
  8
DEFAULT
 62
   178
 10
102.2399036111111
 20
149.1541975
 30
0.0
 11
103.0752813888889
 21
149.1541975
 31
0.0
  0
LINE
  5
381
  8
DEFAULT
 62
   178
 10
104.9815161111111
 20
148.9644383333333
 30
0.0
 11
107.47248
 21
149.1542327777778
 31
0.0
  0
LINE
  5
382
  8
DEFAULT
 62
   178
 10
105.6953619444445
 20
149.1541975
 30
0.0
 11
103.1969897222222
 21
148.9644030555556
 31
0.0
  0
LINE
  5
383
  8
DEFAULT
 62
   178
 10
104.8601252777778
 20
149.1541975
 30
0.0
 11
105.6955030555555
 21
149.1541975
 31
0.0
  0
LINE
  5
384
  8
DEFAULT
 62
   178
 10
102.5362369444444
 20
143.6559794444444
 30
0.0
 11
101.6250119444444
 21
143.6559794444444
 31
0.0
  0
LINE
  5
385
  8
DEFAULT
 62
   178
 10
101.2224219444444
 20
156.4903877777778
 30
0.0
 11
102.9309247222222
 21
156.4903877777778
 31
0.0
  0
LINE
  5
386
  8
DEFAULT
 62
   178
 10
102.5437158333333
 20
143.5192427777777
 30
0.0
 11
102.5363075
 21
143.6561205555555
 31
0.0
  0
LINE
  5
387
  8
DEFAULT
 62
   178
 10
100.3110558333333
 20
155.5638169444445
 30
0.0
 11
100.2503780555556
 21
155.5109002777778
 31
0.0
  0
LINE
  5
388
  8
DEFAULT
 62
   178
 10
102.3615061111111
 20
148.9644383333333
 30
0.0
 11
104.8602311111111
 21
149.1542327777778
 31
0.0
  0
LINE
  5
389
  8
DEFAULT
 62
   178
 10
100.1364661111111
 20
150.0655988888889
 30
0.0
 11
100.2504133333333
 21
150.0655988888889
 31
0.0
  0
LINE
  5
38A
  8
DEFAULT
 62
   178
 10
100.2577863888889
 20
152.7615972222222
 30
0.0
 11
100.2503780555556
 21
152.7464277777778
 31
0.0
  0
LINE
  5
38B
  8
DEFAULT
 62
   178
 10
100.1364661111111
 20
152.7463572222222
 30
0.0
 11
100.2504133333333
 21
152.7463572222222
 31
0.0
  0
LINE
  5
38C
  8
DEFAULT
 62
   178
 10
100.2577863888889
 20
152.7615972222222
 30
0.0
 11
100.1364308333333
 21
152.7615972222222
 31
0.0
  0
LINE
  5
38D
  8
DEFAULT
 62
   178
 10
102.4830733333333
 20
116.9086858333333
 30
0.0
 11
104.3132844444444
 21
116.7718080555556
 31
0.0
  0
LINE
  5
38E
  8
DEFAULT
 62
   178
 10
105.1030480555555
 20
116.9086858333333
 30
0.0
 11
106.9332591666666
 21
116.7718080555556
 31
0.0
  0
LINE
  5
38F
  8
DEFAULT
 62
   178
 10
107.7686722222222
 20
116.7719491666666
 30
0.0
 11
105.9384611111111
 21
116.9088269444444
 31
0.0
  0
LINE
  5
390
  8
DEFAULT
 62
   178
 10
105.1562469444444
 20
116.7719491666666
 30
0.0
 11
103.3260358333333
 21
116.9088269444444
 31
0.0
  0
LINE
  5
391
  8
DEFAULT
 62
   178
 10
106.9333297222222
 20
116.7719491666666
 30
0.0
 11
107.7687075
 21
116.7719491666666
 31
0.0
  0
LINE
  5
392
  8
DEFAULT
 62
   178
 10
104.3132844444444
 20
116.7719491666666
 30
0.0
 11
105.1560705555555
 21
116.7719491666666
 31
0.0
  0
LINE
  5
393
  8
DEFAULT
 62
   178
 10
102.5362369444444
 20
116.7719491666666
 30
0.0
 11
102.5436452777778
 21
116.9010658333333
 31
0.0
  0
LINE
  5
394
  8
DEFAULT
 62
   178
 10
105.1562469444444
 20
116.7719491666666
 30
0.0
 11
105.1562469444444
 21
116.9010658333333
 31
0.0
  0
LINE
  5
395
  8
DEFAULT
 62
   178
 10
105.9384258333333
 20
116.9086858333333
 30
0.0
 11
107.7231286111111
 21
116.9086858333333
 31
0.0
  0
LINE
  5
396
  8
DEFAULT
 62
   178
 10
103.3260358333333
 20
116.9086858333333
 30
0.0
 11
105.1029775
 21
116.9086858333333
 31
0.0
  0
LINE
  5
397
  8
DEFAULT
 62
   178
 10
101.7008591666667
 20
116.7719491666666
 30
0.0
 11
102.5362369444444
 21
116.7719491666666
 31
0.0
  0
LINE
  5
398
  8
DEFAULT
 62
   178
 10
102.5362369444444
 20
116.7719491666666
 30
0.0
 11
100.7060258333333
 21
116.9088269444444
 31
0.0
  0
LINE
  5
399
  8
DEFAULT
 62
   178
 10
100.7058847222222
 20
116.9086858333333
 30
0.0
 11
102.4831791666667
 21
116.9086858333333
 31
0.0
  0
LINE
  5
39A
  8
DEFAULT
 62
   178
 10
99.91622694444446
 20
116.7719491666667
 30
0.0
 11
99.92363527777778
 21
116.9010658333333
 31
0.0
  0
LINE
  5
39B
  8
DEFAULT
 62
   178
 10
107.7686722222222
 20
116.7719491666667
 30
0.0
 11
107.7764333333333
 21
116.9010658333333
 31
0.0
  0
LINE
  5
39C
  8
DEFAULT
 62
   178
 10
107.5104388888889
 20
156.7029716666667
 30
0.0
 11
103.7741694444444
 21
156.4902466666667
 31
0.0
  0
LINE
  5
39D
  8
DEFAULT
 62
   178
 10
106.6750611111111
 20
156.7029716666667
 30
0.0
 11
104.9665583333333
 21
156.7029716666667
 31
0.0
  0
LINE
  5
39E
  8
DEFAULT
 62
   178
 10
104.9664525
 20
156.7029716666667
 30
0.0
 11
104.9664525
 21
156.611955
 31
0.0
  0
LINE
  5
39F
  8
DEFAULT
 62
   178
 10
102.9310658333333
 20
156.4903877777778
 30
0.0
 11
106.6750963888889
 21
156.7031127777778
 31
0.0
  0
LINE
  5
3A0
  8
DEFAULT
 62
   178
 10
104.9664525
 20
156.7029716666667
 30
0.0
 11
101.2224219444445
 21
156.4902466666666
 31
0.0
  0
LINE
  5
3A1
  8
DEFAULT
 62
   178
 10
104.0550863888889
 20
156.7029716666667
 30
0.0
 11
102.2781447222222
 21
156.7029716666667
 31
0.0
  0
LINE
  5
3A2
  8
DEFAULT
 62
   178
 10
101.1008547222222
 20
156.5359313888889
 30
0.0
 11
104.0550158333333
 21
156.7031480555555
 31
0.0
  0
LINE
  5
3A3
  8
DEFAULT
 62
   178
 10
101.0325569444444
 20
156.6346738888889
 30
0.0
 11
101.1009958333333
 21
156.5358961111111
 31
0.0
  0
LINE
  5
3A4
  8
DEFAULT
 62
   178
 10
102.2780036111111
 20
156.7029716666667
 30
0.0
 11
101.0326980555556
 21
156.6345327777778
 31
0.0
  0
LINE
  5
3A5
  8
DEFAULT
 62
   178
 10
108.3154072222222
 20
149.1541975
 30
0.0
 11
105.817035
 21
148.9644030555556
 31
0.0
  0
LINE
  5
3A6
  8
DEFAULT
 62
   178
 10
107.4725858333333
 20
149.1541975
 30
0.0
 11
108.3153719444444
 21
149.1541975
 31
0.0
  0
LINE
  5
3A7
  8
DEFAULT
 62
   178
 10
105.5511816666667
 20
156.4903877777778
 30
0.0
 11
109.2952122222222
 21
156.7031127777778
 31
0.0
  0
LINE
  5
3A8
  8
DEFAULT
 62
   178
 10
108.3154072222222
 20
149.0176019444444
 30
0.0
 11
108.3154072222222
 21
149.1541269444444
 31
0.0
  0
LINE
  5
3A9
  8
DEFAULT
 62
   178
 10
117.9831411111111
 20
103.7173722222222
 30
0.0
 11
114.2391105555556
 21
103.9300972222223
 31
0.0
  0
LINE
  5
3AA
  8
DEFAULT
 62
   178
 10
115.4466336111111
 20
111.4559055555555
 30
0.0
 11
117.9450058333333
 21
111.2661111111111
 31
0.0
  0
LINE
  5
3AB
  8
DEFAULT
 62
   178
 10
110.2140572222222
 20
111.4559055555555
 30
0.0
 11
112.7050211111111
 21
111.2661111111111
 31
0.0
  0
LINE
  5
3AC
  8
DEFAULT
 62
   178
 10
112.8341730555555
 20
111.4559055555555
 30
0.0
 11
115.3247841666667
 21
111.2661111111111
 31
0.0
  0
LINE
  5
3AD
  8
DEFAULT
 62
   178
 10
116.1605147222222
 20
111.2661111111111
 30
0.0
 11
113.6695508333333
 21
111.4559055555556
 31
0.0
  0
LINE
  5
3AE
  8
DEFAULT
 62
   178
 10
113.5479836111111
 20
111.2661111111111
 30
0.0
 11
111.0492586111111
 21
111.4559055555555
 31
0.0
  0
LINE
  5
3AF
  8
DEFAULT
 62
   178
 10
118.7956941666667
 20
111.2661111111111
 30
0.0
 11
116.3124913888889
 21
111.4559055555556
 31
0.0
  0
LINE
  5
3B0
  8
DEFAULT
 62
   178
 10
113.6695508333333
 20
111.4559055555555
 30
0.0
 11
115.4464925
 21
111.4559055555555
 31
0.0
  0
LINE
  5
3B1
  8
DEFAULT
 62
   178
 10
113.5479836111111
 20
111.2661111111111
 30
0.0
 11
113.5479836111111
 21
111.4026361111111
 31
0.0
  0
LINE
  5
3B2
  8
DEFAULT
 62
   178
 10
115.3249252777778
 20
111.2661111111111
 30
0.0
 11
116.1606558333333
 21
111.2661111111111
 31
0.0
  0
LINE
  5
3B3
  8
DEFAULT
 62
   178
 10
111.0493291666667
 20
111.4559055555555
 30
0.0
 11
112.8340319444444
 21
111.4559055555555
 31
0.0
  0
LINE
  5
3B4
  8
DEFAULT
 62
   178
 10
112.7049152777778
 20
111.2661111111111
 30
0.0
 11
113.5480541666666
 21
111.2661111111111
 31
0.0
  0
LINE
  5
3B5
  8
DEFAULT
 62
   178
 10
110.0925605555555
 20
111.2661111111111
 30
0.0
 11
110.9279383333333
 21
111.2661111111111
 31
0.0
  0
LINE
  5
3B6
  8
DEFAULT
 62
   178
 10
118.0589177777777
 20
111.4559055555555
 30
0.0
 11
120.420765
 21
111.2812805555555
 31
0.0
  0
LINE
  5
3B7
  8
DEFAULT
 62
   178
 10
116.312315
 20
111.4559055555555
 30
0.0
 11
118.0589177777778
 21
111.4559055555555
 31
0.0
  0
LINE
  5
3B8
  8
DEFAULT
 62
   178
 10
116.1605147222222
 20
111.2661111111111
 30
0.0
 11
116.1679230555556
 21
111.4026361111111
 31
0.0
  0
LINE
  5
3B9
  8
DEFAULT
 62
   178
 10
117.9451469444444
 20
111.2661111111111
 30
0.0
 11
118.7956941666666
 21
111.2661111111111
 31
0.0
  0
LINE
  5
3BA
  8
DEFAULT
 62
   178
 10
120.4056661111111
 20
111.3497194444445
 30
0.0
 11
118.924705
 21
111.4559055555556
 31
0.0
  0
LINE
  5
3BB
  8
DEFAULT
 62
   178
 10
118.7956941666666
 20
111.2661111111111
 30
0.0
 11
118.8031025
 21
111.4026361111111
 31
0.0
  0
LINE
  5
3BC
  8
DEFAULT
 62
   178
 10
120.4207297222222
 20
111.2813158333333
 30
0.0
 11
120.4207297222222
 21
111.2661463888889
 31
0.0
  0
LINE
  5
3BD
  8
DEFAULT
 62
   178
 10
118.924705
 20
111.4559055555555
 30
0.0
 11
120.3753272222222
 21
111.4559055555555
 31
0.0
  0
LINE
  5
3BE
  8
DEFAULT
 62
   178
 10
120.3752566666667
 20
111.4559055555556
 30
0.0
 11
120.4055955555555
 21
111.3497194444445
 31
0.0
  0
LINE
  5
3BF
  8
DEFAULT
 62
   178
 10
121.3853652777778
 20
111.7825777777778
 30
0.0
 11
121.3853652777778
 21
116.7719138888889
 31
0.0
  0
LINE
  5
3C0
  8
DEFAULT
 62
   178
 10
110.9279383333333
 20
111.2661111111111
 30
0.0
 11
110.9353466666667
 21
111.4026361111111
 31
0.0
  0
LINE
  5
3C1
  8
DEFAULT
 62
   178
 10
114.7858808333333
 20
116.7719491666666
 30
0.0
 11
115.6212586111111
 21
116.7719491666666
 31
0.0
  0
LINE
  5
3C2
  8
DEFAULT
 62
   178
 10
112.1658708333333
 20
116.7719491666666
 30
0.0
 11
113.0086569444444
 21
116.7719491666666
 31
0.0
  0
LINE
  5
3C3
  8
DEFAULT
 62
   178
 10
120.0184219444444
 20
116.7719491666666
 30
0.0
 11
121.3854358333333
 21
116.7719491666666
 31
0.0
  0
LINE
  5
3C4
  8
DEFAULT
 62
   178
 10
118.2412686111111
 20
116.7719491666666
 30
0.0
 11
116.4110575
 21
116.9088269444444
 31
0.0
  0
LINE
  5
3C5
  8
DEFAULT
 62
   178
 10
115.6211175
 20
116.7719491666667
 30
0.0
 11
115.6288786111111
 21
116.9010658333333
 31
0.0
  0
LINE
  5
3C6
  8
DEFAULT
 62
   178
 10
115.5756797222222
 20
116.9086858333333
 30
0.0
 11
117.4058908333333
 21
116.7718080555556
 31
0.0
  0
LINE
  5
3C7
  8
DEFAULT
 62
   178
 10
116.4109516666666
 20
116.9086858333333
 30
0.0
 11
118.1882461111111
 21
116.9086858333333
 31
0.0
  0
LINE
  5
3C8
  8
DEFAULT
 62
   178
 10
121.3397863888889
 20
116.9392363888889
 30
0.0
 11
121.3397863888889
 21
117.0302530555555
 31
0.0
  0
LINE
  5
3C9
  8
DEFAULT
 62
   178
 10
118.188105
 20
116.9086858333333
 30
0.0
 11
120.0183161111111
 21
116.7718080555556
 31
0.0
  0
LINE
  5
3CA
  8
DEFAULT
 62
   178
 10
121.3397863888889
 20
116.9392363888889
 30
0.0
 11
121.3852947222222
 21
116.7720197222222
 31
0.0
  0
LINE
  5
3CB
  8
DEFAULT
 62
   178
 10
120.3676719444445
 20
116.8099433333334
 30
0.0
 11
119.0309969444445
 21
116.9087211111111
 31
0.0
  0
LINE
  5
3CC
  8
DEFAULT
 62
   178
 10
119.0311380555555
 20
116.9086858333333
 30
0.0
 11
120.3448825
 21
116.9086858333333
 31
0.0
  0
LINE
  5
3CD
  8
DEFAULT
 62
   178
 10
120.3449530555555
 20
116.9086858333333
 30
0.0
 11
120.3675308333333
 21
116.8099080555556
 31
0.0
  0
LINE
  5
3CE
  8
DEFAULT
 62
   178
 10
118.2412686111111
 20
116.7719491666666
 30
0.0
 11
118.2486769444445
 21
116.9010658333333
 31
0.0
  0
LINE
  5
3CF
  8
DEFAULT
 62
   178
 10
113.0087980555555
 20
116.7719491666667
 30
0.0
 11
111.1785869444445
 21
116.9088269444444
 31
0.0
  0
LINE
  5
3D0
  8
DEFAULT
 62
   178
 10
110.3356244444444
 20
116.9086858333333
 30
0.0
 11
112.1658355555556
 21
116.7718080555555
 31
0.0
  0
LINE
  5
3D1
  8
DEFAULT
 62
   178
 10
110.3887880555555
 20
116.7719491666667
 30
0.0
 11
110.3961963888889
 21
116.9010658333333
 31
0.0
  0
LINE
  5
3D2
  8
DEFAULT
 62
   178
 10
111.1785869444444
 20
116.9086858333333
 30
0.0
 11
112.9555286111111
 21
116.9086858333333
 31
0.0
  0
LINE
  5
3D3
  8
DEFAULT
 62
   178
 10
115.6211175
 20
116.7719491666666
 30
0.0
 11
113.7909063888889
 21
116.9088269444444
 31
0.0
  0
LINE
  5
3D4
  8
DEFAULT
 62
   178
 10
112.9556344444445
 20
116.9086858333333
 30
0.0
 11
114.7858455555556
 21
116.7718080555556
 31
0.0
  0
LINE
  5
3D5
  8
DEFAULT
 62
   178
 10
113.0087980555555
 20
116.7719491666666
 30
0.0
 11
113.0087980555555
 21
116.9010658333333
 31
0.0
  0
LINE
  5
3D6
  8
DEFAULT
 62
   178
 10
113.7909063888889
 20
116.9086858333333
 30
0.0
 11
115.5756091666667
 21
116.9086858333333
 31
0.0
  0
LINE
  5
3D7
  8
DEFAULT
 62
   178
 10
121.6891775
 20
111.7901625
 30
0.0
 11
121.6817691666666
 21
117.0532541666666
 31
0.0
  0
LINE
  5
3D8
  8
DEFAULT
 62
   178
 10
121.3853652777778
 20
111.4938997222222
 30
0.0
 11
121.3853652777778
 21
111.7824719444444
 31
0.0
  0
LINE
  5
3D9
  8
DEFAULT
 62
   178
 10
120.4207297222222
 20
111.2661111111111
 30
0.0
 11
121.4462547222222
 21
111.2661111111111
 31
0.0
  0
LINE
  5
3DA
  8
DEFAULT
 62
   178
 10
121.3853652777778
 20
111.4938997222222
 30
0.0
 11
121.4460430555555
 21
111.2660052777778
 31
0.0
  0
LINE
  5
3DB
  8
DEFAULT
 62
   178
 10
121.6815927777777
 20
117.0531130555555
 30
0.0
 11
121.6360844444444
 21
117.2351463888889
 31
0.0
  0
LINE
  5
3DC
  8
DEFAULT
 62
   178
 10
121.6283586111111
 20
118.9136277777778
 30
0.0
 11
121.6361197222222
 21
117.2354638888889
 31
0.0
  0
LINE
  5
3DD
  8
DEFAULT
 62
   178
 10
121.3245111111111
 20
118.7920605555556
 30
0.0
 11
121.3396805555556
 21
117.0302883333334
 31
0.0
  0
LINE
  5
3DE
  8
DEFAULT
 62
   178
 10
121.7423058333333
 20
111.5546833333333
 30
0.0
 11
121.6890363888889
 21
111.7903388888889
 31
0.0
  0
LINE
  5
3DF
  8
DEFAULT
 62
   178
 10
121.7498905555555
 20
104.2565225
 30
0.0
 11
121.7424822222222
 21
111.5547891666666
 31
0.0
  0
LINE
  5
3E0
  8
DEFAULT
 62
   178
 10
121.8789719444445
 20
103.8541088888889
 30
0.0
 11
121.7498552777778
 21
104.2566283333333
 31
0.0
  0
LINE
  5
3E1
  8
DEFAULT
 62
   178
 10
121.4461136111111
 20
104.2413883333333
 30
0.0
 11
121.4461136111111
 21
111.2662522222222
 31
0.0
  0
LINE
  5
3E2
  8
DEFAULT
 62
   178
 10
121.4461136111111
 20
103.960295
 30
0.0
 11
121.4461136111111
 21
104.2414588888889
 31
0.0
  0
LINE
  5
3E3
  8
DEFAULT
 62
   178
 10
120.4739991666666
 20
103.8768630555555
 30
0.0
 11
120.4514213888888
 21
103.9301325
 31
0.0
  0
LINE
  5
3E4
  8
DEFAULT
 62
   178
 10
114.23904
 20
103.9300972222222
 30
0.0
 11
116.0237427777778
 21
103.9300972222222
 31
0.0
  0
LINE
  5
3E5
  8
DEFAULT
 62
   178
 10
116.8590147222222
 20
103.9300972222222
 30
0.0
 11
118.6363091666666
 21
103.9300972222222
 31
0.0
  0
LINE
  5
3E6
  8
DEFAULT
 62
   178
 10
119.4791658333333
 20
103.9300972222222
 30
0.0
 11
120.4739991666667
 21
103.8768277777777
 31
0.0
  0
LINE
  5
3E7
  8
DEFAULT
 62
   178
 10
120.4512802777778
 20
103.9300972222222
 30
0.0
 11
119.4790247222222
 21
103.9300972222222
 31
0.0
  0
LINE
  5
3E8
  8
DEFAULT
 62
   178
 10
111.6265794444444
 20
103.9300972222222
 30
0.0
 11
113.4038738888889
 21
103.9300972222222
 31
0.0
  0
LINE
  5
3E9
  8
DEFAULT
 62
   178
 10
121.4461136111111
 20
103.960295
 30
0.0
 11
121.5829913888889
 21
103.5581283333333
 31
0.0
  0
LINE
  5
3EA
  8
DEFAULT
 62
   178
 10
116.0237427777778
 20
103.9300972222222
 30
0.0
 11
119.760365
 21
103.7173722222222
 31
0.0
  0
LINE
  5
3EB
  8
DEFAULT
 62
   178
 10
120.5195427777777
 20
103.7249216666666
 30
0.0
 11
116.8591205555555
 21
103.9302383333333
 31
0.0
  0
LINE
  5
3EC
  8
DEFAULT
 62
   178
 10
120.4892744444444
 20
103.8236641666666
 30
0.0
 11
120.5196133333333
 21
103.7248863888889
 31
0.0
  0
LINE
  5
3ED
  8
DEFAULT
 62
   178
 10
118.6362033333333
 20
103.9300972222222
 30
0.0
 11
120.489345
 21
103.8235583333333
 31
0.0
  0
LINE
  5
3EE
  8
DEFAULT
 62
   178
 10
119.7602238888889
 20
103.7173722222222
 30
0.0
 11
117.9832822222222
 21
103.7173722222222
 31
0.0
  0
LINE
  5
3EF
  8
DEFAULT
 62
   178
 10
117.9831411111111
 20
103.8161147222222
 30
0.0
 11
117.9831411111111
 21
103.7173369444444
 31
0.0
  0
LINE
  5
3F0
  8
DEFAULT
 62
   178
 10
115.3629194444444
 20
103.7173722222222
 30
0.0
 11
111.62665
 21
103.9300972222222
 31
0.0
  0
LINE
  5
3F1
  8
DEFAULT
 62
   178
 10
111.9076375
 20
103.7173722222222
 30
0.0
 11
110.1306958333333
 21
103.7173722222222
 31
0.0
  0
LINE
  5
3F2
  8
DEFAULT
 62
   178
 10
110.7836169444444
 20
103.9300972222222
 30
0.0
 11
114.5276475
 21
103.7173722222222
 31
0.0
  0
LINE
  5
3F3
  8
DEFAULT
 62
   178
 10
114.5276475
 20
103.7173722222222
 30
0.0
 11
112.7507058333333
 21
103.7173722222222
 31
0.0
  0
LINE
  5
3F4
  8
DEFAULT
 62
   178
 10
112.7506
 20
103.8161147222222
 30
0.0
 11
112.7506
 21
103.7173369444444
 31
0.0
  0
LINE
  5
3F5
  8
DEFAULT
 62
   178
 10
113.4037680555555
 20
103.9300972222222
 30
0.0
 11
117.1477986111111
 21
103.7173722222222
 31
0.0
  0
LINE
  5
3F6
  8
DEFAULT
 62
   178
 10
117.1476927777778
 20
103.7173722222222
 30
0.0
 11
115.36299
 21
103.7173722222222
 31
0.0
  0
LINE
  5
3F7
  8
DEFAULT
 62
   178
 10
115.37061
 20
103.8161147222222
 30
0.0
 11
115.3628488888889
 21
103.7173369444445
 31
0.0
  0
LINE
  5
3F8
  8
DEFAULT
 62
   178
 10
110.13059
 20
103.7173722222222
 30
0.0
 11
110.1379983333333
 21
103.81615
 31
0.0
  0
LINE
  5
3F9
  8
DEFAULT
 62
   178
 10
91.45605138888888
 20
117.0301825
 30
0.0
 11
121.3398569444444
 21
117.0301825
 31
0.0
  0
LINE
  5
3FA
  8
DEFAULT
 62
   178
 10
121.3397863888889
 20
116.9392363888889
 30
0.0
 11
91.45598083333334
 21
116.9392363888889
 31
0.0
  0
LINE
  5
3FB
  8
DEFAULT
 62
   178
 10
91.47122083333332
 20
118.7920605555556
 30
0.0
 11
121.3246875
 21
118.7920605555556
 31
0.0
  0
LINE
  5
3FC
  8
DEFAULT
 62
   178
 10
120.7321972222222
 20
119.0882880555556
 30
0.0
 11
92.07111944444445
 21
119.0882880555556
 31
0.0
  0
LINE
  5
3FD
  8
DEFAULT
 62
   178
 10
97.12903555555553
 20
111.4559055555555
 30
0.0
 11
99.61999944444442
 21
111.2661111111111
 31
0.0
  0
LINE
  5
3FE
  8
DEFAULT
 62
   178
 10
99.74146083333332
 20
111.4559055555556
 30
0.0
 11
102.2398330555555
 21
111.2661111111111
 31
0.0
  0
LINE
  5
3FF
  8
DEFAULT
 62
   178
 10
102.3615061111111
 20
111.4559055555555
 30
0.0
 11
104.8602311111111
 21
111.2661111111111
 31
0.0
  0
LINE
  5
400
  8
DEFAULT
 62
   178
 10
104.9815161111111
 20
111.4559055555555
 30
0.0
 11
107.47248
 21
111.2661111111111
 31
0.0
  0
LINE
  5
401
  8
DEFAULT
 62
   178
 10
99.08084916666667
 20
116.7719491666666
 30
0.0
 11
99.91622694444443
 21
116.7719491666666
 31
0.0
  0
LINE
  5
402
  8
DEFAULT
 62
   178
 10
103.0754225
 20
111.2661111111111
 30
0.0
 11
103.0828308333333
 21
111.4026361111111
 31
0.0
  0
LINE
  5
403
  8
DEFAULT
 62
   178
 10
100.4553772222222
 20
111.2661111111111
 30
0.0
 11
97.96441333333334
 21
111.4559055555555
 31
0.0
  0
LINE
  5
404
  8
DEFAULT
 62
   178
 10
97.96444861111111
 20
111.4559055555555
 30
0.0
 11
99.74139027777777
 21
111.4559055555555
 31
0.0
  0
LINE
  5
405
  8
DEFAULT
 62
   178
 10
97.84295194444444
 20
111.2661111111111
 30
0.0
 11
97.85036027777777
 21
111.4026361111111
 31
0.0
  0
LINE
  5
406
  8
DEFAULT
 62
   178
 10
97.00757416666666
 20
111.2661111111111
 30
0.0
 11
97.84295194444444
 21
111.2661111111111
 31
0.0
  0
LINE
  5
407
  8
DEFAULT
 62
   178
 10
99.61985833333333
 20
111.2661111111111
 30
0.0
 11
100.4552361111111
 21
111.2661111111111
 31
0.0
  0
LINE
  5
408
  8
DEFAULT
 62
   178
 10
108.3079636111111
 20
111.2661111111111
 30
0.0
 11
105.8169997222222
 21
111.4559055555555
 31
0.0
  0
LINE
  5
409
  8
DEFAULT
 62
   178
 10
103.0754225
 20
111.2661111111111
 30
0.0
 11
100.5844586111111
 21
111.4559055555555
 31
0.0
  0
LINE
  5
40A
  8
DEFAULT
 62
   178
 10
100.5844233333333
 20
111.4559055555555
 30
0.0
 11
102.361365
 21
111.4559055555555
 31
0.0
  0
LINE
  5
40B
  8
DEFAULT
 62
   178
 10
100.4553772222222
 20
111.2661111111111
 30
0.0
 11
100.4627855555555
 21
111.4026361111111
 31
0.0
  0
LINE
  5
40C
  8
DEFAULT
 62
   178
 10
102.2399036111111
 20
111.2661111111111
 30
0.0
 11
103.0752813888889
 21
111.2661111111111
 31
0.0
  0
LINE
  5
40D
  8
DEFAULT
 62
   178
 10
105.6953619444445
 20
111.2661111111111
 30
0.0
 11
103.1969897222222
 21
111.4559055555556
 31
0.0
  0
LINE
  5
40E
  8
DEFAULT
 62
   178
 10
103.1969897222222
 20
111.4559055555555
 30
0.0
 11
104.9816925
 21
111.4559055555555
 31
0.0
  0
LINE
  5
40F
  8
DEFAULT
 62
   178
 10
105.8169644444444
 20
111.4559055555555
 30
0.0
 11
107.5939061111111
 21
111.4559055555555
 31
0.0
  0
LINE
  5
410
  8
DEFAULT
 62
   178
 10
104.8601252777778
 20
111.2661111111111
 30
0.0
 11
105.6955030555555
 21
111.2661111111111
 31
0.0
  0
LINE
  5
411
  8
DEFAULT
 62
   178
 10
105.6953619444444
 20
111.2661111111111
 30
0.0
 11
105.7031230555556
 21
111.4026361111111
 31
0.0
  0
LINE
  5
412
  8
DEFAULT
 62
   178
 10
107.4725858333333
 20
111.2661111111111
 30
0.0
 11
108.3079636111111
 21
111.2661111111111
 31
0.0
  0
LINE
  5
413
  8
DEFAULT
 62
   178
 10
108.3079636111111
 20
111.2661111111111
 30
0.0
 11
108.3153719444444
 21
111.4026361111111
 31
0.0
  0
LINE
  5
414
  8
DEFAULT
 62
   178
 10
99.91622694444442
 20
116.7719491666666
 30
0.0
 11
98.08566305555553
 21
116.9088269444444
 31
0.0
  0
LINE
  5
415
  8
DEFAULT
 62
   178
 10
97.2505322222222
 20
116.9086858333333
 30
0.0
 11
99.08074333333333
 21
116.7718080555556
 31
0.0
  0
LINE
  5
416
  8
DEFAULT
 62
   178
 10
98.0857688888889
 20
116.9086858333333
 30
0.0
 11
99.87047166666667
 21
116.9086858333333
 31
0.0
  0
LINE
  5
417
  8
DEFAULT
 62
   178
 10
99.8706127777778
 20
116.9086858333333
 30
0.0
 11
101.7008238888889
 21
116.7718080555556
 31
0.0
  0
LINE
  5
418
  8
DEFAULT
 62
   178
 10
96.46069805555554
 20
116.7719491666666
 30
0.0
 11
97.30348416666665
 21
116.7719491666666
 31
0.0
  0
LINE
  5
419
  8
DEFAULT
 62
   178
 10
120.7321972222222
 20
119.0731538888889
 30
0.0
 11
92.07111944444445
 21
119.0731538888889
 31
0.0
  0
LINE
  5
41A
  8
DEFAULT
 62
   178
 10
101.6248708333333
 20
143.6559794444444
 30
0.0
 11
99.82499861111108
 21
143.5191016666667
 31
0.0
  0
LINE
  5
41B
  8
DEFAULT
 62
   178
 10
109.5533044444445
 20
143.6559794444444
 30
0.0
 11
107.7230933333333
 21
143.5191016666667
 31
0.0
  0
LINE
  5
41C
  8
DEFAULT
 62
   178
 10
108.5585769444445
 20
143.5192427777777
 30
0.0
 11
110.3887880555556
 21
143.6561205555555
 31
0.0
  0
LINE
  5
41D
  8
DEFAULT
 62
   178
 10
110.3356244444444
 20
143.5192427777777
 30
0.0
 11
108.5586827777778
 21
143.5192427777777
 31
0.0
  0
LINE
  5
41E
  8
DEFAULT
 62
   178
 10
112.1658708333333
 20
143.6559794444444
 30
0.0
 11
110.3356597222222
 21
143.5191016666667
 31
0.0
  0
LINE
  5
41F
  8
DEFAULT
 62
   178
 10
111.1785869444445
 20
143.5192427777778
 30
0.0
 11
113.0087980555555
 21
143.6561205555555
 31
0.0
  0
LINE
  5
420
  8
DEFAULT
 62
   178
 10
110.3887880555555
 20
143.6559794444444
 30
0.0
 11
109.5534102777778
 21
143.6559794444444
 31
0.0
  0
LINE
  5
421
  8
DEFAULT
 62
   178
 10
113.0087980555555
 20
143.6559794444444
 30
0.0
 11
112.1660119444444
 21
143.6559794444444
 31
0.0
  0
LINE
  5
422
  8
DEFAULT
 62
   178
 10
112.9556344444444
 20
143.5192427777777
 30
0.0
 11
111.1786927777778
 21
143.5192427777777
 31
0.0
  0
LINE
  5
423
  8
DEFAULT
 62
   178
 10
113.0087980555555
 20
143.5192427777777
 30
0.0
 11
113.0087980555555
 21
143.6561205555555
 31
0.0
  0
LINE
  5
424
  8
DEFAULT
 62
   178
 10
110.3963727777777
 20
143.5192427777777
 30
0.0
 11
110.3889644444444
 21
143.6561205555555
 31
0.0
  0
LINE
  5
425
  8
DEFAULT
 62
   178
 10
114.7858808333333
 20
143.6559794444444
 30
0.0
 11
112.9556697222222
 21
143.5191016666667
 31
0.0
  0
LINE
  5
426
  8
DEFAULT
 62
   178
 10
99.58189944444445
 20
151.6147519444444
 30
0.0
 11
99.58189944444445
 21
150.7186963888889
 31
0.0
  0
LINE
  5
427
  8
DEFAULT
 62
   178
 10
99.5818994444444
 20
151.6147519444444
 30
0.0
 11
99.6199994444444
 21
151.5770047222221
 31
0.0
  0
LINE
  5
428
  8
DEFAULT
 62
   178
 10
99.61985833333334
 20
150.75662
 30
0.0
 11
99.58175833333334
 21
150.71852
 31
0.0
  0
LINE
  5
429
  8
DEFAULT
 62
   178
 10
99.87819749999997
 20
150.4148841666666
 30
0.0
 11
99.91629749999997
 21
150.4603925
 31
0.0
  0
LINE
  5
42A
  8
DEFAULT
 62
   178
 10
99.91622694444443
 20
150.75662
 30
0.0
 11
99.91622694444443
 21
150.4602866666667
 31
0.0
  0
LINE
  5
42B
  8
DEFAULT
 62
   178
 10
99.91622694444446
 20
151.8730911111111
 30
0.0
 11
99.87812694444446
 21
151.9111911111111
 31
0.0
  0
LINE
  5
42C
  8
DEFAULT
 62
   178
 10
99.91622694444443
 20
151.5770047222222
 30
0.0
 11
99.91622694444443
 21
151.8729852777778
 31
0.0
  0
LINE
  5
42D
  8
DEFAULT
 62
   178
 10
99.91622694444443
 20
151.5770047222222
 30
0.0
 11
99.91622694444443
 21
150.7567963888889
 31
0.0
  0
LINE
  5
42E
  8
DEFAULT
 62
   178
 10
99.01241027777776
 20
143.6559794444444
 30
0.0
 11
97.21253805555556
 21
143.5191016666667
 31
0.0
  0
LINE
  5
42F
  8
DEFAULT
 62
   178
 10
99.82506916666667
 20
143.5192427777777
 30
0.0
 11
98.19206083333333
 21
143.5192427777777
 31
0.0
  0
LINE
  5
430
  8
DEFAULT
 62
   178
 10
97.37199361111111
 20
143.6559794444444
 30
0.0
 11
99.01241027777776
 21
143.6559794444444
 31
0.0
  0
LINE
  5
431
  8
DEFAULT
 62
   178
 10
100.3110558333333
 20
149.2378058333333
 30
0.0
 11
93.11932805555553
 21
149.2378058333333
 31
0.0
  0
LINE
  5
432
  8
DEFAULT
 62
   178
 10
100.2503075
 20
151.9110852777778
 30
0.0
 11
99.87812694444443
 21
151.9110852777778
 31
0.0
  0
LINE
  5
433
  8
DEFAULT
 62
   178
 10
100.2577863888889
 20
149.2910752777778
 30
0.0
 11
93.18000583333333
 21
149.2910752777778
 31
0.0
  0
LINE
  5
434
  8
DEFAULT
 62
   178
 10
100.2957805555556
 20
151.5770047222222
 30
0.0
 11
99.91619166666665
 21
151.5770047222222
 31
0.0
  0
LINE
  5
435
  8
DEFAULT
 62
   178
 10
100.2957805555556
 20
151.8730911111111
 30
0.0
 11
99.91619166666665
 21
151.8730911111111
 31
0.0
  0
LINE
  5
436
  8
DEFAULT
 62
   178
 10
99.99203888888889
 20
143.6559794444444
 30
0.0
 11
99.01237499999999
 21
143.6559794444444
 31
0.0
  0
LINE
  5
437
  8
DEFAULT
 62
   178
 10
98.19209611111111
 20
143.5192427777777
 30
0.0
 11
99.99196833333332
 21
143.6561205555555
 31
0.0
  0
LINE
  5
438
  8
DEFAULT
 62
   178
 10
100.2503075
 20
155.5107591666666
 30
0.0
 11
93.17993527777779
 21
155.5107591666666
 31
0.0
  0
LINE
  5
439
  8
DEFAULT
 62
   178
 10
99.91622694444443
 20
150.75662
 30
0.0
 11
100.2958158333333
 21
150.75662
 31
0.0
  0
LINE
  5
43A
  8
DEFAULT
 62
   178
 10
99.91622694444443
 20
150.4604277777778
 30
0.0
 11
100.2958158333333
 21
150.4604277777778
 31
0.0
  0
LINE
  5
43B
  8
DEFAULT
 62
   178
 10
99.8781975
 20
150.4148841666667
 30
0.0
 11
100.2503780555556
 21
150.4148841666667
 31
0.0
  0
LINE
  5
43C
  8
DEFAULT
 62
   178
 10
98.89094888888889
 20
156.4675983333333
 30
0.0
 11
121.4461488888889
 21
156.4675983333333
 31
0.0
  0
LINE
  5
43D
  8
DEFAULT
 62
   178
 10
98.8756736111111
 20
155.5638169444444
 30
0.0
 11
100.3111263888889
 21
155.5638169444444
 31
0.0
  0
LINE
  5
43E
  8
DEFAULT
 62
   178
 10
121.4461136111111
 20
156.1789908333333
 30
0.0
 11
98.89091361111112
 21
156.1789908333333
 31
0.0
  0
LINE
  5
43F
  8
DEFAULT
 62
   178
 10
91.35730888888888
 20
149.1541975
 30
0.0
 11
100.4706172222222
 21
149.1541975
 31
0.0
  0
LINE
  5
440
  8
DEFAULT
 62
   178
 10
91.41036666666665
 20
148.9339936111111
 30
0.0
 11
121.3851888888889
 21
148.9339936111111
 31
0.0
  0
LINE
  5
441
  8
DEFAULT
 62
   178
 10
102.2780036111111
 20
156.6042644444444
 30
0.0
 11
102.2780036111111
 21
156.7030422222222
 31
0.0
  0
LINE
  5
442
  8
DEFAULT
 62
   178
 10
121.3853652777778
 20
148.6453508333333
 30
0.0
 11
91.41054305555554
 21
148.6453508333333
 31
0.0
  0
LINE
  5
443
  8
DEFAULT
 62
   178
 10
121.5828502777778
 20
156.8700472222222
 30
0.0
 11
91.22067805555555
 21
156.8700472222222
 31
0.0
  0
LINE
  5
444
  8
DEFAULT
 62
   178
 10
110.7836169444445
 20
156.4903877777778
 30
0.0
 11
114.5276475
 21
156.7031127777778
 31
0.0
  0
LINE
  5
445
  8
DEFAULT
 62
   178
 10
112.7506
 20
156.7029716666667
 30
0.0
 11
109.0065694444445
 21
156.4902466666667
 31
0.0
  0
LINE
  5
446
  8
DEFAULT
 62
   178
 10
108.1712269444445
 20
156.4903877777778
 30
0.0
 11
111.9074963888889
 21
156.7031127777778
 31
0.0
  0
LINE
  5
447
  8
DEFAULT
 62
   178
 10
107.7230933333333
 20
116.9086858333333
 30
0.0
 11
109.5533044444445
 21
116.7718080555556
 31
0.0
  0
LINE
  5
448
  8
DEFAULT
 62
   178
 10
110.3887880555555
 20
116.7719491666666
 30
0.0
 11
108.5585769444444
 21
116.9088269444444
 31
0.0
  0
LINE
  5
449
  8
DEFAULT
 62
   178
 10
109.5533044444444
 20
116.7719491666666
 30
0.0
 11
110.3886822222222
 21
116.7719491666666
 31
0.0
  0
LINE
  5
44A
  8
DEFAULT
 62
   178
 10
108.5585769444444
 20
116.9086858333333
 30
0.0
 11
110.3355186111111
 21
116.9086858333333
 31
0.0
  0
LINE
  5
44B
  8
DEFAULT
 62
   178
 10
114.5276475
 20
156.7029716666667
 30
0.0
 11
112.7507058333333
 21
156.7029716666667
 31
0.0
  0
LINE
  5
44C
  8
DEFAULT
 62
   178
 10
110.13059
 20
156.7029716666667
 30
0.0
 11
110.13059
 21
156.6041938888889
 31
0.0
  0
LINE
  5
44D
  8
DEFAULT
 62
   178
 10
111.9076375
 20
156.7029716666667
 30
0.0
 11
110.1306958333333
 21
156.7029716666667
 31
0.0
  0
LINE
  5
44E
  8
DEFAULT
 62
   178
 10
109.2951063888889
 20
156.7029716666667
 30
0.0
 11
107.5104036111111
 21
156.7029716666667
 31
0.0
  0
LINE
  5
44F
  8
DEFAULT
 62
   178
 10
107.5940472222222
 20
148.9644383333333
 30
0.0
 11
110.0924194444444
 21
149.1542327777778
 31
0.0
  0
LINE
  5
450
  8
DEFAULT
 62
   178
 10
110.0925605555555
 20
149.1541975
 30
0.0
 11
110.9279383333333
 21
149.1541975
 31
0.0
  0
LINE
  5
451
  8
DEFAULT
 62
   178
 10
110.9279383333333
 20
149.1541975
 30
0.0
 11
108.4369744444444
 21
148.9644030555556
 31
0.0
  0
LINE
  5
452
  8
DEFAULT
 62
   178
 10
108.4370097222222
 20
148.9644383333333
 30
0.0
 11
110.2139513888889
 21
148.9644383333333
 31
0.0
  0
LINE
  5
453
  8
DEFAULT
 62
   178
 10
111.6265794444444
 20
156.4903877777778
 30
0.0
 11
113.4038738888889
 21
156.4903877777778
 31
0.0
  0
LINE
  5
454
  8
DEFAULT
 62
   178
 10
110.2140572222222
 20
148.9644383333333
 30
0.0
 11
112.7124294444444
 21
149.1542327777778
 31
0.0
  0
LINE
  5
455
  8
DEFAULT
 62
   178
 10
113.5479836111111
 20
149.1541975
 30
0.0
 11
111.0492586111111
 21
148.9644030555555
 31
0.0
  0
LINE
  5
456
  8
DEFAULT
 62
   178
 10
111.0493291666667
 20
148.9644383333333
 30
0.0
 11
112.8340319444444
 21
148.9644383333333
 31
0.0
  0
LINE
  5
457
  8
DEFAULT
 62
   178
 10
112.8341730555555
 20
148.9644383333333
 30
0.0
 11
115.3247841666667
 21
149.1542327777778
 31
0.0
  0
LINE
  5
458
  8
DEFAULT
 62
   178
 10
112.7125705555555
 20
149.1541975
 30
0.0
 11
113.5479483333333
 21
149.1541975
 31
0.0
  0
LINE
  5
459
  8
DEFAULT
 62
   178
 10
110.9355230555555
 20
149.0176019444445
 30
0.0
 11
110.9281147222222
 21
149.1541269444444
 31
0.0
  0
LINE
  5
45A
  8
DEFAULT
 62
   178
 10
109.0066047222222
 20
156.4903877777778
 30
0.0
 11
110.7835463888889
 21
156.4903877777778
 31
0.0
  0
LINE
  5
45B
  8
DEFAULT
 62
   178
 10
110.13059
 20
156.7029716666667
 30
0.0
 11
106.3865594444445
 21
156.4902466666667
 31
0.0
  0
LINE
  5
45C
  8
DEFAULT
 62
   178
 10
115.3629194444444
 20
156.7029716666667
 30
0.0
 11
111.62665
 21
156.4902466666666
 31
0.0
  0
LINE
  5
45D
  8
DEFAULT
 62
   178
 10
114.5428169444444
 20
156.7334516666666
 30
0.0
 11
112.1658002777778
 21
156.7334516666666
 31
0.0
  0
LINE
  5
45E
  8
DEFAULT
 62
   178
 10
111.5810005555555
 20
156.7334516666666
 30
0.0
 11
109.2039838888889
 21
156.7334516666666
 31
0.0
  0
LINE
  5
45F
  8
DEFAULT
 62
   178
 10
107.5181294444444
 20
156.6042644444444
 30
0.0
 11
107.5103683333333
 21
156.7030422222222
 31
0.0
  0
LINE
  5
460
  8
DEFAULT
 62
   178
 10
112.7506
 20
156.6042644444444
 30
0.0
 11
112.7506
 21
156.7030422222222
 31
0.0
  0
LINE
  5
461
  8
DEFAULT
 62
   178
 10
109.2040191666667
 20
156.7334516666666
 30
0.0
 11
109.2040191666667
 21
156.8396377777778
 31
0.0
  0
LINE
  5
462
  8
DEFAULT
 62
   178
 10
111.5810005555555
 20
156.8397083333333
 30
0.0
 11
111.5810005555555
 21
156.7335222222222
 31
0.0
  0
LINE
  5
463
  8
DEFAULT
 62
   178
 10
112.1658708333333
 20
156.7334516666666
 30
0.0
 11
112.1658708333333
 21
156.8396377777778
 31
0.0
  0
LINE
  5
464
  8
DEFAULT
 62
   178
 10
112.1658708333333
 20
156.8397083333333
 30
0.0
 11
114.5428875
 21
156.8397083333333
 31
0.0
  0
LINE
  5
465
  8
DEFAULT
 62
   178
 10
114.5428169444444
 20
156.8397083333333
 30
0.0
 11
114.5428169444444
 21
156.7335222222222
 31
0.0
  0
LINE
  5
466
  8
DEFAULT
 62
   178
 10
109.2040191666667
 20
156.8397083333333
 30
0.0
 11
111.5810358333333
 21
156.8397083333333
 31
0.0
  0
LINE
  5
467
  8
DEFAULT
 62
   178
 10
91.22071333333332
 20
103.5580225
 30
0.0
 11
121.5828855555555
 21
103.5580225
 31
0.0
  0
LINE
  5
468
  8
DEFAULT
 62
   178
 10
110.13059
 20
103.7173722222223
 30
0.0
 11
106.3865594444444
 21
103.9300972222223
 31
0.0
  0
LINE
  5
469
  8
DEFAULT
 62
   178
 10
102.2780036111111
 20
103.7173722222222
 30
0.0
 11
98.53397305555555
 21
103.9300972222222
 31
0.0
  0
LINE
  5
46A
  8
DEFAULT
 62
   178
 10
99.65792305555556
 20
103.7173722222222
 30
0.0
 11
95.92165361111111
 21
103.9300972222222
 31
0.0
  0
LINE
  5
46B
  8
DEFAULT
 62
   178
 10
97.04546250000001
 20
103.7173722222222
 30
0.0
 11
93.30143194444443
 21
103.9300972222222
 31
0.0
  0
LINE
  5
46C
  8
DEFAULT
 62
   178
 10
91.05356722222224
 20
104.2565225
 30
0.0
 11
90.92445055555558
 21
103.8540030555556
 31
0.0
  0
LINE
  5
46D
  8
DEFAULT
 62
   178
 10
98.53390249999998
 20
103.9300972222222
 30
0.0
 11
100.3186052777778
 21
103.9300972222222
 31
0.0
  0
LINE
  5
46E
  8
DEFAULT
 62
   178
 10
95.07862055555556
 20
103.9300972222222
 30
0.0
 11
98.82265111111113
 21
103.7173722222222
 31
0.0
  0
LINE
  5
46F
  8
DEFAULT
 62
   178
 10
98.82265111111111
 20
103.7173722222222
 30
0.0
 11
97.04535666666666
 21
103.7173722222222
 31
0.0
  0
LINE
  5
470
  8
DEFAULT
 62
   178
 10
97.04546249999999
 20
103.8161147222222
 30
0.0
 11
97.04546249999999
 21
103.7173369444444
 31
0.0
  0
LINE
  5
471
  8
DEFAULT
 62
   178
 10
94.42548777777773
 20
103.7173722222222
 30
0.0
 11
92.2989433333333
 21
103.8387277777777
 31
0.0
  0
LINE
  5
472
  8
DEFAULT
 62
   178
 10
92.46608944444445
 20
103.9300972222222
 30
0.0
 11
96.2023588888889
 21
103.7173722222222
 31
0.0
  0
LINE
  5
473
  8
DEFAULT
 62
   178
 10
92.29901388888888
 20
103.7932547222222
 30
0.0
 11
93.58982777777776
 21
103.7174075
 31
0.0
  0
LINE
  5
474
  8
DEFAULT
 62
   178
 10
92.29901388888888
 20
103.7173722222222
 30
0.0
 11
92.29901388888888
 21
103.7932194444444
 31
0.0
  0
LINE
  5
475
  8
DEFAULT
 62
   178
 10
93.58996888888888
 20
103.7173722222222
 30
0.0
 11
92.299155
 21
103.7173722222222
 31
0.0
  0
LINE
  5
476
  8
DEFAULT
 62
   178
 10
96.20249999999999
 20
103.7173722222222
 30
0.0
 11
94.42555833333333
 21
103.7173722222222
 31
0.0
  0
LINE
  5
477
  8
DEFAULT
 62
   178
 10
94.43303722222221
 20
103.8161147222222
 30
0.0
 11
94.42562888888887
 21
103.7173369444444
 31
0.0
  0
LINE
  5
478
  8
DEFAULT
 62
   178
 10
100.0148636111111
 20
103.5806002777778
 30
0.0
 11
97.5542386111111
 21
103.5806002777778
 31
0.0
  0
LINE
  5
479
  8
DEFAULT
 62
   178
 10
99.66561361111111
 20
103.8161147222222
 30
0.0
 11
99.65785249999998
 21
103.7173369444444
 31
0.0
  0
LINE
  5
47A
  8
DEFAULT
 62
   178
 10
97.55430916666666
 20
103.6945122222222
 30
0.0
 11
100.0149341666667
 21
103.6945122222222
 31
0.0
  0
LINE
  5
47B
  8
DEFAULT
 62
   178
 10
92.29901388888885
 20
103.8388336111111
 30
0.0
 11
92.31418333333332
 21
103.9302030555555
 31
0.0
  0
LINE
  5
47C
  8
DEFAULT
 62
   178
 10
92.29901388888888
 20
103.8388336111111
 30
0.0
 11
92.29901388888888
 21
103.9302030555556
 31
0.0
  0
LINE
  5
47D
  8
DEFAULT
 62
   178
 10
97.55430916666666
 20
103.5806002777778
 30
0.0
 11
97.55430916666666
 21
103.6945475
 31
0.0
  0
LINE
  5
47E
  8
DEFAULT
 62
   178
 10
100.0148636111111
 20
103.6945122222222
 30
0.0
 11
100.0148636111111
 21
103.580565
 31
0.0
  0
LINE
  5
47F
  8
DEFAULT
 62
   178
 10
91.22071333333331
 20
103.5580225
 30
0.0
 11
91.34982999999997
 21
103.9601891666666
 31
0.0
  0
LINE
  5
480
  8
DEFAULT
 62
   178
 10
97.69859527777777
 20
103.9300972222222
 30
0.0
 11
101.4426258333333
 21
103.7173722222222
 31
0.0
  0
LINE
  5
481
  8
DEFAULT
 62
   178
 10
91.34975944444444
 20
104.2413883333333
 30
0.0
 11
121.44629
 21
104.2413883333333
 31
0.0
  0
LINE
  5
482
  8
DEFAULT
 62
   178
 10
107.5104388888889
 20
103.7173722222222
 30
0.0
 11
103.7741694444444
 21
103.9300972222222
 31
0.0
  0
LINE
  5
483
  8
DEFAULT
 62
   178
 10
104.8980488888889
 20
103.7173722222222
 30
0.0
 11
101.1540183333333
 21
103.9300972222222
 31
0.0
  0
LINE
  5
484
  8
DEFAULT
 62
   178
 10
104.0550863888889
 20
103.7173722222222
 30
0.0
 11
102.2781447222222
 21
103.7173722222222
 31
0.0
  0
LINE
  5
485
  8
DEFAULT
 62
   178
 10
101.4426258333333
 20
103.7173722222222
 30
0.0
 11
99.65792305555554
 21
103.7173722222222
 31
0.0
  0
LINE
  5
486
  8
DEFAULT
 62
   178
 10
100.3186405555555
 20
103.9300972222222
 30
0.0
 11
104.05491
 21
103.7173722222222
 31
0.0
  0
LINE
  5
487
  8
DEFAULT
 62
   178
 10
101.1538772222222
 20
103.9300972222222
 30
0.0
 11
102.9311716666667
 21
103.9300972222222
 31
0.0
  0
LINE
  5
488
  8
DEFAULT
 62
   178
 10
102.2780036111111
 20
103.8161147222222
 30
0.0
 11
102.2780036111111
 21
103.7173369444444
 31
0.0
  0
LINE
  5
489
  8
DEFAULT
 62
   178
 10
112.7506
 20
103.7173722222223
 30
0.0
 11
109.0065694444444
 21
103.9300972222223
 31
0.0
  0
LINE
  5
48A
  8
DEFAULT
 62
   178
 10
102.9310658333333
 20
103.9300972222222
 30
0.0
 11
106.6750963888889
 21
103.7173722222222
 31
0.0
  0
LINE
  5
48B
  8
DEFAULT
 62
   178
 10
105.5511816666667
 20
103.9300972222222
 30
0.0
 11
109.2952122222222
 21
103.7173722222222
 31
0.0
  0
LINE
  5
48C
  8
DEFAULT
 62
   178
 10
109.0066047222222
 20
103.9300972222222
 30
0.0
 11
110.7835463888889
 21
103.9300972222222
 31
0.0
  0
LINE
  5
48D
  8
DEFAULT
 62
   178
 10
106.6750611111111
 20
103.7173722222222
 30
0.0
 11
104.8981194444444
 21
103.7173722222222
 31
0.0
  0
LINE
  5
48E
  8
DEFAULT
 62
   178
 10
109.2951063888889
 20
103.7173722222222
 30
0.0
 11
107.5104036111111
 21
103.7173722222222
 31
0.0
  0
LINE
  5
48F
  8
DEFAULT
 62
   178
 10
106.3865594444444
 20
103.9300972222222
 30
0.0
 11
108.1712622222222
 21
103.9300972222222
 31
0.0
  0
LINE
  5
490
  8
DEFAULT
 62
   178
 10
107.5181294444444
 20
103.8161147222222
 30
0.0
 11
107.5103683333333
 21
103.7173369444444
 31
0.0
  0
LINE
  5
491
  8
DEFAULT
 62
   178
 10
103.7740988888889
 20
103.9300972222222
 30
0.0
 11
105.5510405555555
 21
103.9300972222222
 31
0.0
  0
LINE
  5
492
  8
DEFAULT
 62
   178
 10
104.8980488888889
 20
103.8161147222222
 30
0.0
 11
104.8980488888889
 21
103.7173369444444
 31
0.0
  0
LINE
  5
493
  8
DEFAULT
 62
   178
 10
108.1712269444444
 20
103.9300972222222
 30
0.0
 11
111.9074963888889
 21
103.7173722222222
 31
0.0
  0
LINE
  5
494
  8
DEFAULT
 62
   178
 10
108.9382716666667
 20
103.5806002777778
 30
0.0
 11
106.4776466666666
 21
103.5806002777778
 31
0.0
  0
LINE
  5
495
  8
DEFAULT
 62
   178
 10
108.9382716666667
 20
103.6945122222222
 30
0.0
 11
108.9382716666667
 21
103.580565
 31
0.0
  0
LINE
  5
496
  8
DEFAULT
 62
   178
 10
106.4777525
 20
103.5806002777778
 30
0.0
 11
106.4777525
 21
103.6945475
 31
0.0
  0
LINE
  5
497
  8
DEFAULT
 62
   178
 10
104.47274
 20
103.6945122222222
 30
0.0
 11
104.47274
 21
103.580565
 31
0.0
  0
LINE
  5
498
  8
DEFAULT
 62
   178
 10
102.0196644444444
 20
103.6945122222222
 30
0.0
 11
104.4728811111111
 21
103.6945122222222
 31
0.0
  0
LINE
  5
499
  8
DEFAULT
 62
   178
 10
106.4777525
 20
103.6945122222222
 30
0.0
 11
108.9383775
 21
103.6945122222222
 31
0.0
  0
LINE
  5
49A
  8
DEFAULT
 62
   178
 10
104.47274
 20
103.5806002777778
 30
0.0
 11
102.012115
 21
103.5806002777778
 31
0.0
  0
LINE
  5
49B
  8
DEFAULT
 62
   178
 10
102.0122208333333
 20
103.5806002777778
 30
0.0
 11
102.0196291666667
 21
103.6945475
 31
0.0
  0
LINE
  5
49C
  8
DEFAULT
 62
   178
 10
121.4461136111111
 20
103.960295
 30
0.0
 11
91.34958305555556
 21
103.960295
 31
0.0
  0
LINE
  5
49D
  8
DEFAULT
 62
   178
 10
93.09650333333335
 20
152.0629561111111
 30
0.0
 11
93.18011166666666
 21
152.1158727777778
 31
0.0
  0
LINE
  5
49E
  8
DEFAULT
 62
   178
 10
93.17997055555556
 20
150.217505
 30
0.0
 11
93.09636222222221
 21
150.2707744444444
 31
0.0
  0
LINE
  5
49F
  8
DEFAULT
 62
   178
 10
93.11925749999999
 20
150.1338966666667
 30
0.0
 11
93.04341027777778
 21
150.1871661111111
 31
0.0
  0
LINE
  5
4A0
  8
DEFAULT
 62
   178
 10
93.0433397222222
 20
152.1388738888889
 30
0.0
 11
93.12694805555554
 21
152.1995516666667
 31
0.0
  0
POLYLINE
  5
4A1
  8
DEFAULT
 62
   178
 66
     1
 10
0.0
 20
0.0
 30
0.0
  0
VERTEX
  5
4A2
  8
DEFAULT
 62
   178
 10
91.75989888888888
 20
119.3844802777778
 30
0.0
  0
VERTEX
  5
4A3
  8
DEFAULT
 62
   178
 10
91.75989888888888
 20
119.3312108333333
 30
0.0
  0
VERTEX
  5
4A4
  8
DEFAULT
 62
   178
 10
91.77506833333334
 20
119.2782941666667
 30
0.0
  0
VERTEX
  5
4A5
  8
DEFAULT
 62
   178
 10
91.79799888888888
 20
119.2324330555555
 30
0.0
  0
VERTEX
  5
4A6
  8
DEFAULT
 62
   178
 10
91.827985
 20
119.1872775
 30
0.0
  0
VERTEX
  5
4A7
  8
DEFAULT
 62
   178
 10
91.866085
 20
119.1491775
 30
0.0
  0
VERTEX
  5
4A8
  8
DEFAULT
 62
   178
 10
91.9119461111111
 20
119.1188386111111
 30
0.0
  0
VERTEX
  5
4A9
  8
DEFAULT
 62
   178
 10
91.96486277777778
 20
119.0959080555555
 30
0.0
  0
VERTEX
  5
4AA
  8
DEFAULT
 62
   178
 10
92.01813222222223
 20
119.0807386111111
 30
0.0
  0
VERTEX
  5
4AB
  8
DEFAULT
 62
   178
 10
92.07140166666666
 20
119.0729775
 30
0.0
  0
SEQEND
  5
4AC
  8
DEFAULT
 62
   178
  0
POLYLINE
  5
4AD
  8
DEFAULT
 62
   178
 66
     1
 10
0.0
 20
0.0
 30
0.0
  0
VERTEX
  5
4AE
  8
DEFAULT
 62
   178
 10
91.77503305555554
 20
119.3844802777778
 30
0.0
  0
VERTEX
  5
4AF
  8
DEFAULT
 62
   178
 10
91.77503305555554
 20
119.3389719444444
 30
0.0
  0
VERTEX
  5
4B0
  8
DEFAULT
 62
   178
 10
91.79020249999999
 20
119.2857025
 30
0.0
  0
VERTEX
  5
4B1
  8
DEFAULT
 62
   178
 10
91.81313305555555
 20
119.2401941666667
 30
0.0
  0
VERTEX
  5
4B2
  8
DEFAULT
 62
   178
 10
91.84347194444445
 20
119.1946858333333
 30
0.0
  0
VERTEX
  5
4B3
  8
DEFAULT
 62
   178
 10
91.88121916666665
 20
119.1565858333333
 30
0.0
  0
VERTEX
  5
4B4
  8
DEFAULT
 62
   178
 10
91.91931916666665
 20
119.1262469444444
 30
0.0
  0
VERTEX
  5
4B5
  8
DEFAULT
 62
   178
 10
91.9648275
 20
119.1033163888889
 30
0.0
  0
VERTEX
  5
4B6
  8
DEFAULT
 62
   178
 10
92.01809694444444
 20
119.0959080555555
 30
0.0
  0
VERTEX
  5
4B7
  8
DEFAULT
 62
   178
 10
92.07136638888888
 20
119.0881469444444
 30
0.0
  0
SEQEND
  5
4B8
  8
DEFAULT
 62
   178
  0
POLYLINE
  5
4B9
  8
DEFAULT
 62
   178
 66
     1
 10
0.0
 20
0.0
 30
0.0
  0
VERTEX
  5
4BA
  8
DEFAULT
 62
   178
 10
91.41036666666665
 20
148.9339936111111
 30
0.0
  0
VERTEX
  5
4BB
  8
DEFAULT
 62
   178
 10
91.35745
 20
148.9265852777777
 30
0.0
  0
VERTEX
  5
4BC
  8
DEFAULT
 62
   178
 10
91.31158888888889
 20
148.9114158333333
 30
0.0
  0
VERTEX
  5
4BD
  8
DEFAULT
 62
   178
 10
91.26608055555555
 20
148.8884852777778
 30
0.0
  0
VERTEX
  5
4BE
  8
DEFAULT
 62
   178
 10
91.2205722222222
 20
148.8581463888889
 30
0.0
  0
VERTEX
  5
4BF
  8
DEFAULT
 62
   178
 10
91.182825
 20
148.8278075
 30
0.0
  0
VERTEX
  5
4C0
  8
DEFAULT
 62
   178
 10
91.15213333333331
 20
148.7819463888889
 30
0.0
  0
VERTEX
  5
4C1
  8
DEFAULT
 62
   178
 10
91.12955555555554
 20
148.7364380555555
 30
0.0
  0
VERTEX
  5
4C2
  8
DEFAULT
 62
   178
 10
91.12179444444443
 20
148.6835213888889
 30
0.0
  0
VERTEX
  5
4C3
  8
DEFAULT
 62
   178
 10
91.1143861111111
 20
148.6302519444444
 30
0.0
  0
SEQEND
  5
4C4
  8
DEFAULT
 62
   178
  0
POLYLINE
  5
4C5
  8
DEFAULT
 62
   178
 66
     1
 10
0.0
 20
0.0
 30
0.0
  0
VERTEX
  5
4C6
  8
DEFAULT
 62
   178
 10
91.45605138888885
 20
143.4888333333333
 30
0.0
  0
VERTEX
  5
4C7
  8
DEFAULT
 62
   178
 10
91.41019027777774
 20
143.4814249999999
 30
0.0
  0
VERTEX
  5
4C8
  8
DEFAULT
 62
   178
 10
91.35727361111111
 20
143.4659027777778
 30
0.0
  0
VERTEX
  5
4C9
  8
DEFAULT
 62
   178
 10
91.31176527777777
 20
143.443325
 30
0.0
  0
VERTEX
  5
4CA
  8
DEFAULT
 62
   178
 10
91.26625694444444
 20
143.4129861111111
 30
0.0
  0
VERTEX
  5
4CB
  8
DEFAULT
 62
   178
 10
91.22815694444442
 20
143.3826472222222
 30
0.0
  0
VERTEX
  5
4CC
  8
DEFAULT
 62
   178
 10
91.20557916666667
 20
143.3371388888889
 30
0.0
  0
VERTEX
  5
4CD
  8
DEFAULT
 62
   178
 10
91.1826486111111
 20
143.2916305555555
 30
0.0
  0
VERTEX
  5
4CE
  8
DEFAULT
 62
   178
 10
91.16747916666667
 20
143.2383611111111
 30
0.0
  0
VERTEX
  5
4CF
  8
DEFAULT
 62
   178
 10
91.15971805555556
 20
143.1850916666667
 30
0.0
  0
SEQEND
  5
4D0
  8
DEFAULT
 62
   178
  0
POLYLINE
  5
4D1
  8
DEFAULT
 62
   178
 66
     1
 10
0.0
 20
0.0
 30
0.0
  0
VERTEX
  5
4D2
  8
DEFAULT
 62
   178
 10
95.20766666666668
 20
156.4751830555555
 30
0.0
  0
VERTEX
  5
4D3
  8
DEFAULT
 62
   178
 10
95.15439722222222
 20
156.4677747222222
 30
0.0
  0
VERTEX
  5
4D4
  8
DEFAULT
 62
   178
 10
95.10888888888888
 20
156.4600136111111
 30
0.0
  0
VERTEX
  5
4D5
  8
DEFAULT
 62
   178
 10
95.06338055555555
 20
156.4370830555555
 30
0.0
  0
VERTEX
  5
4D6
  8
DEFAULT
 62
   178
 10
95.01787222222221
 20
156.4067441666666
 30
0.0
  0
VERTEX
  5
4D7
  8
DEFAULT
 62
   178
 10
94.97977222222221
 20
156.3767580555555
 30
0.0
  0
VERTEX
  5
4D8
  8
DEFAULT
 62
   178
 10
94.94943333333332
 20
156.3308969444444
 30
0.0
  0
VERTEX
  5
4D9
  8
DEFAULT
 62
   178
 10
94.92685555555555
 20
156.2853886111111
 30
0.0
  0
VERTEX
  5
4DA
  8
DEFAULT
 62
   178
 10
94.9116861111111
 20
156.2398802777778
 30
0.0
  0
VERTEX
  5
4DB
  8
DEFAULT
 62
   178
 10
94.9116861111111
 20
156.1866108333333
 30
0.0
  0
SEQEND
  5
4DC
  8
DEFAULT
 62
   178
  0
LINE
  5
4DD
  8
DEFAULT
 62
   178
 10
91.34975944444444
 20
156.4675983333333
 30
0.0
 11
91.14479555555555
 21
156.3765816666667
 31
0.0
  0
LINE
  5
4DE
  8
DEFAULT
 62
   178
 10
91.14472500000001
 20
156.3765816666667
 30
0.0
 11
91.05370833333333
 21
156.171265
 31
0.0
  0
LINE
  5
4DF
  8
DEFAULT
 62
   178
 10
91.18271916666667
 20
156.3460663888889
 30
0.0
 11
91.14461916666666
 21
156.1788497222222
 31
0.0
  0
LINE
  5
4E0
  8
DEFAULT
 62
   178
 10
91.34975944444444
 20
156.3840605555555
 30
0.0
 11
91.18289555555555
 21
156.3459605555555
 31
0.0
  0
LINE
  5
4E1
  8
DEFAULT
 62
   178
 10
92.6711238888889
 20
150.194645
 30
0.0
 11
92.75473222222222
 21
150.1339672222222
 31
0.0
  0
LINE
  5
4E2
  8
DEFAULT
 62
   178
 10
92.61796027777778
 20
150.1111777777778
 30
0.0
 11
92.70156861111111
 21
150.0579083333333
 31
0.0
  0
LINE
  5
4E3
  8
DEFAULT
 62
   178
 10
92.70153333333333
 20
152.2755047222222
 30
0.0
 11
92.61792499999999
 21
152.2222352777778
 31
0.0
  0
LINE
  5
4E4
  8
DEFAULT
 62
   178
 10
92.75473222222224
 20
152.1920375
 30
0.0
 11
92.67112388888887
 21
152.1387680555555
 31
0.0
  0
POLYLINE
  5
4E5
  8
DEFAULT
 62
   178
 66
     1
 10
0.0
 20
0.0
 30
0.0
  0
VERTEX
  5
4E6
  8
DEFAULT
 62
   178
 10
93.82558916666669
 20
156.1866813888889
 30
0.0
  0
VERTEX
  5
4E7
  8
DEFAULT
 62
   178
 10
93.81782805555558
 20
156.2395980555556
 30
0.0
  0
VERTEX
  5
4E8
  8
DEFAULT
 62
   178
 10
93.80265861111111
 20
156.2854591666666
 30
0.0
  0
VERTEX
  5
4E9
  8
DEFAULT
 62
   178
 10
93.77972805555555
 20
156.3309675
 30
0.0
  0
VERTEX
  5
4EA
  8
DEFAULT
 62
   178
 10
93.74938916666666
 20
156.3764758333333
 30
0.0
  0
VERTEX
  5
4EB
  8
DEFAULT
 62
   178
 10
93.71164194444445
 20
156.4068147222222
 30
0.0
  0
VERTEX
  5
4EC
  8
DEFAULT
 62
   178
 10
93.67354194444445
 20
156.4371536111111
 30
0.0
  0
VERTEX
  5
4ED
  8
DEFAULT
 62
   178
 10
93.6280336111111
 20
156.4600841666666
 30
0.0
  0
VERTEX
  5
4EE
  8
DEFAULT
 62
   178
 10
93.57511694444446
 20
156.4674925
 30
0.0
  0
VERTEX
  5
4EF
  8
DEFAULT
 62
   178
 10
93.52925583333334
 20
156.4752536111111
 30
0.0
  0
SEQEND
  5
4F0
  8
DEFAULT
 62
   178
  0
POLYLINE
  5
4F1
  8
DEFAULT
 62
   178
 66
     1
 10
0.0
 20
0.0
 30
0.0
  0
VERTEX
  5
4F2
  8
DEFAULT
 62
   178
 10
91.15985916666665
 20
117.2353227777778
 30
0.0
  0
VERTEX
  5
4F3
  8
DEFAULT
 62
   178
 10
91.16762027777776
 20
117.1820533333333
 30
0.0
  0
VERTEX
  5
4F4
  8
DEFAULT
 62
   178
 10
91.18278972222221
 20
117.136545
 30
0.0
  0
VERTEX
  5
4F5
  8
DEFAULT
 62
   178
 10
91.2053675
 20
117.0910366666667
 30
0.0
  0
VERTEX
  5
4F6
  8
DEFAULT
 62
   178
 10
91.22829805555554
 20
117.0455283333333
 30
0.0
  0
VERTEX
  5
4F7
  8
DEFAULT
 62
   178
 10
91.26604527777775
 20
117.0074283333333
 30
0.0
  0
VERTEX
  5
4F8
  8
DEFAULT
 62
   178
 10
91.31190638888887
 20
116.9770894444444
 30
0.0
  0
VERTEX
  5
4F9
  8
DEFAULT
 62
   178
 10
91.3574147222222
 20
116.9541588888889
 30
0.0
  0
VERTEX
  5
4FA
  8
DEFAULT
 62
   178
 10
91.41033138888886
 20
116.9467505555556
 30
0.0
  0
VERTEX
  5
4FB
  8
DEFAULT
 62
   178
 10
91.45619249999997
 20
116.9393422222222
 30
0.0
  0
SEQEND
  5
4FC
  8
DEFAULT
 62
   178
  0
POLYLINE
  5
4FD
  8
DEFAULT
 62
   178
 66
     1
 10
0.0
 20
0.0
 30
0.0
  0
VERTEX
  5
4FE
  8
DEFAULT
 62
   178
 10
91.11424499999998
 20
111.7901625
 30
0.0
  0
VERTEX
  5
4FF
  8
DEFAULT
 62
   178
 10
91.12200611111109
 20
111.7368930555556
 30
0.0
  0
VERTEX
  5
500
  8
DEFAULT
 62
   178
 10
91.12941444444444
 20
111.6913847222222
 30
0.0
  0
VERTEX
  5
501
  8
DEFAULT
 62
   178
 10
91.15199222222222
 20
111.6458763888889
 30
0.0
  0
VERTEX
  5
502
  8
DEFAULT
 62
   178
 10
91.18268388888887
 20
111.6003680555555
 30
0.0
  0
VERTEX
  5
503
  8
DEFAULT
 62
   178
 10
91.22078388888887
 20
111.5622680555555
 30
0.0
  0
VERTEX
  5
504
  8
DEFAULT
 62
   178
 10
91.2662922222222
 20
111.5319291666666
 30
0.0
  0
VERTEX
  5
505
  8
DEFAULT
 62
   178
 10
91.31180055555554
 20
111.5089986111111
 30
0.0
  0
VERTEX
  5
506
  8
DEFAULT
 62
   178
 10
91.35730888888888
 20
111.5015902777778
 30
0.0
  0
VERTEX
  5
507
  8
DEFAULT
 62
   178
 10
91.41022555555554
 20
111.4938291666667
 30
0.0
  0
SEQEND
  5
508
  8
DEFAULT
 62
   178
  0
POLYLINE
  5
509
  8
DEFAULT
 62
   178
 66
     1
 10
0.0
 20
0.0
 30
0.0
  0
VERTEX
  5
50A
  8
DEFAULT
 62
   178
 10
95.20766666666665
 20
156.589095
 30
0.0
  0
VERTEX
  5
50B
  8
DEFAULT
 62
   178
 10
95.16180555555555
 20
156.589095
 30
0.0
  0
VERTEX
  5
50C
  8
DEFAULT
 62
   178
 10
95.10888888888888
 20
156.5739255555555
 30
0.0
  0
VERTEX
  5
50D
  8
DEFAULT
 62
   178
 10
95.06338055555555
 20
156.550995
 30
0.0
  0
VERTEX
  5
50E
  8
DEFAULT
 62
   178
 10
95.02528055555554
 20
156.5284172222222
 30
0.0
  0
VERTEX
  5
50F
  8
DEFAULT
 62
   178
 10
94.98753333333332
 20
156.4903172222222
 30
0.0
  0
VERTEX
  5
510
  8
DEFAULT
 62
   178
 10
94.95719444444444
 20
156.4522172222222
 30
0.0
  0
VERTEX
  5
511
  8
DEFAULT
 62
   178
 10
94.93426388888889
 20
156.4067088888889
 30
0.0
  0
VERTEX
  5
512
  8
DEFAULT
 62
   178
 10
94.91909444444444
 20
156.3537922222222
 30
0.0
  0
VERTEX
  5
513
  8
DEFAULT
 62
   178
 10
94.9116861111111
 20
156.3082838888889
 30
0.0
  0
SEQEND
  5
514
  8
DEFAULT
 62
   178
  0
POLYLINE
  5
515
  8
DEFAULT
 62
   178
 66
     1
 10
0.0
 20
0.0
 30
0.0
  0
VERTEX
  5
516
  8
DEFAULT
 62
   178
 10
93.81786333333335
 20
156.3081427777778
 30
0.0
  0
VERTEX
  5
517
  8
DEFAULT
 62
   178
 10
93.81010222222224
 20
156.3536511111111
 30
0.0
  0
VERTEX
  5
518
  8
DEFAULT
 62
   178
 10
93.77976333333332
 20
156.4446677777778
 30
0.0
  0
VERTEX
  5
519
  8
DEFAULT
 62
   178
 10
93.74942444444443
 20
156.4905288888889
 30
0.0
  0
VERTEX
  5
51A
  8
DEFAULT
 62
   178
 10
93.71167722222222
 20
156.5208677777778
 30
0.0
  0
VERTEX
  5
51B
  8
DEFAULT
 62
   178
 10
93.67357722222222
 20
156.5512066666666
 30
0.0
  0
VERTEX
  5
51C
  8
DEFAULT
 62
   178
 10
93.62806888888888
 20
156.5737844444444
 30
0.0
  0
VERTEX
  5
51D
  8
DEFAULT
 62
   178
 10
93.57479944444444
 20
156.5889538888889
 30
0.0
  0
VERTEX
  5
51E
  8
DEFAULT
 62
   178
 10
93.5292911111111
 20
156.5889538888889
 30
0.0
  0
SEQEND
  5
51F
  8
DEFAULT
 62
   178
  0
POLYLINE
  5
520
  8
DEFAULT
 62
   178
 66
     1
 10
0.0
 20
0.0
 30
0.0
  0
VERTEX
  5
521
  8
DEFAULT
 62
   178
 10
91.20543805555556
 20
156.8700472222222
 30
0.0
  0
VERTEX
  5
522
  8
DEFAULT
 62
   178
 10
91.15992972222219
 20
156.8626388888889
 30
0.0
  0
VERTEX
  5
523
  8
DEFAULT
 62
   178
 10
91.10666027777778
 20
156.8474694444444
 30
0.0
  0
VERTEX
  5
524
  8
DEFAULT
 62
   178
 10
91.06115194444443
 20
156.8245388888889
 30
0.0
  0
VERTEX
  5
525
  8
DEFAULT
 62
   178
 10
91.02340472222221
 20
156.7942
 30
0.0
  0
VERTEX
  5
526
  8
DEFAULT
 62
   178
 10
90.98530472222221
 20
156.7638611111111
 30
0.0
  0
VERTEX
  5
527
  8
DEFAULT
 62
   178
 10
90.95496583333333
 20
156.718
 30
0.0
  0
VERTEX
  5
528
  8
DEFAULT
 62
   178
 10
90.93979638888888
 20
156.6728444444444
 30
0.0
  0
VERTEX
  5
529
  8
DEFAULT
 62
   178
 10
90.92427416666665
 20
156.619575
 30
0.0
  0
VERTEX
  5
52A
  8
DEFAULT
 62
   178
 10
90.92427416666665
 20
156.5740666666667
 30
0.0
  0
SEQEND
  5
52B
  8
DEFAULT
 62
   178
  0
LINE
  5
52C
  8
DEFAULT
 62
   178
 10
91.22071333333332
 20
156.8700472222222
 30
0.0
 11
91.20554388888887
 21
156.8700472222222
 31
0.0
  0
POLYLINE
  5
52D
  8
DEFAULT
 62
   178
 66
     1
 10
0.0
 20
0.0
 30
0.0
  0
VERTEX
  5
52E
  8
DEFAULT
 62
   178
 10
97.2126086111111
 20
156.1866813888889
 30
0.0
  0
VERTEX
  5
52F
  8
DEFAULT
 62
   178
 10
97.20520027777775
 20
156.2395980555555
 30
0.0
  0
VERTEX
  5
530
  8
DEFAULT
 62
   178
 10
97.18967805555556
 20
156.2854591666666
 30
0.0
  0
VERTEX
  5
531
  8
DEFAULT
 62
   178
 10
97.16710027777778
 20
156.3309675
 30
0.0
  0
VERTEX
  5
532
  8
DEFAULT
 62
   178
 10
97.1367613888889
 20
156.3690675
 30
0.0
  0
VERTEX
  5
533
  8
DEFAULT
 62
   178
 10
97.0986613888889
 20
156.4068147222222
 30
0.0
  0
VERTEX
  5
534
  8
DEFAULT
 62
   178
 10
97.0605613888889
 20
156.4371536111111
 30
0.0
  0
VERTEX
  5
535
  8
DEFAULT
 62
   178
 10
97.01505305555555
 20
156.4600841666666
 30
0.0
  0
VERTEX
  5
536
  8
DEFAULT
 62
   178
 10
96.96954472222221
 20
156.4674925
 30
0.0
  0
VERTEX
  5
537
  8
DEFAULT
 62
   178
 10
96.91627527777779
 20
156.4752536111111
 30
0.0
  0
SEQEND
  5
538
  8
DEFAULT
 62
   178
  0
POLYLINE
  5
539
  8
DEFAULT
 62
   178
 66
     1
 10
0.0
 20
0.0
 30
0.0
  0
VERTEX
  5
53A
  8
DEFAULT
 62
   178
 10
97.21260861111111
 20
156.3081427777777
 30
0.0
  0
VERTEX
  5
53B
  8
DEFAULT
 62
   178
 10
97.20520027777778
 20
156.3536511111111
 30
0.0
  0
VERTEX
  5
53C
  8
DEFAULT
 62
   178
 10
97.18967805555556
 20
156.4069205555555
 30
0.0
  0
VERTEX
  5
53D
  8
DEFAULT
 62
   178
 10
97.16710027777778
 20
156.4524288888889
 30
0.0
  0
VERTEX
  5
53E
  8
DEFAULT
 62
   178
 10
97.1367613888889
 20
156.4905288888889
 30
0.0
  0
VERTEX
  5
53F
  8
DEFAULT
 62
   178
 10
97.0986613888889
 20
156.5282761111111
 30
0.0
  0
VERTEX
  5
540
  8
DEFAULT
 62
   178
 10
97.0605613888889
 20
156.5512066666666
 30
0.0
  0
VERTEX
  5
541
  8
DEFAULT
 62
   178
 10
97.01505305555555
 20
156.5737844444444
 30
0.0
  0
VERTEX
  5
542
  8
DEFAULT
 62
   178
 10
96.9617836111111
 20
156.5889538888889
 30
0.0
  0
VERTEX
  5
543
  8
DEFAULT
 62
   178
 10
96.91627527777779
 20
156.5889538888889
 30
0.0
  0
SEQEND
  5
544
  8
DEFAULT
 62
   178
  0
POLYLINE
  5
545
  8
DEFAULT
 62
   178
 66
     1
 10
0.0
 20
0.0
 30
0.0
  0
VERTEX
  5
546
  8
DEFAULT
 62
   178
 10
98.60230611111109
 20
156.4751830555555
 30
0.0
  0
VERTEX
  5
547
  8
DEFAULT
 62
   178
 10
98.54903666666662
 20
156.4677747222222
 30
0.0
  0
VERTEX
  5
548
  8
DEFAULT
 62
   178
 10
98.4957672222222
 20
156.4600136111111
 30
0.0
  0
VERTEX
  5
549
  8
DEFAULT
 62
   178
 10
98.45025888888888
 20
156.4370830555555
 30
0.0
  0
VERTEX
  5
54A
  8
DEFAULT
 62
   178
 10
98.41251166666665
 20
156.4067441666666
 30
0.0
  0
VERTEX
  5
54B
  8
DEFAULT
 62
   178
 10
98.37441166666665
 20
156.3767580555555
 30
0.0
  0
VERTEX
  5
54C
  8
DEFAULT
 62
   178
 10
98.34407277777775
 20
156.3308969444444
 30
0.0
  0
VERTEX
  5
54D
  8
DEFAULT
 62
   178
 10
98.32149499999998
 20
156.2853886111111
 30
0.0
  0
VERTEX
  5
54E
  8
DEFAULT
 62
   178
 10
98.30632555555553
 20
156.2398802777778
 30
0.0
  0
VERTEX
  5
54F
  8
DEFAULT
 62
   178
 10
98.29856444444442
 20
156.1866108333333
 30
0.0
  0
SEQEND
  5
550
  8
DEFAULT
 62
   178
  0
POLYLINE
  5
551
  8
DEFAULT
 62
   178
 66
     1
 10
0.0
 20
0.0
 30
0.0
  0
VERTEX
  5
552
  8
DEFAULT
 62
   178
 10
98.59472138888889
 20
156.589095
 30
0.0
  0
VERTEX
  5
553
  8
DEFAULT
 62
   178
 10
98.54921305555555
 20
156.589095
 30
0.0
  0
VERTEX
  5
554
  8
DEFAULT
 62
   178
 10
98.49594361111112
 20
156.5739255555555
 30
0.0
  0
VERTEX
  5
555
  8
DEFAULT
 62
   178
 10
98.45043527777779
 20
156.550995
 30
0.0
  0
VERTEX
  5
556
  8
DEFAULT
 62
   178
 10
98.41233527777779
 20
156.5284172222222
 30
0.0
  0
VERTEX
  5
557
  8
DEFAULT
 62
   178
 10
98.37458805555555
 20
156.4903172222222
 30
0.0
  0
VERTEX
  5
558
  8
DEFAULT
 62
   178
 10
98.35165749999999
 20
156.4522172222222
 30
0.0
  0
VERTEX
  5
559
  8
DEFAULT
 62
   178
 10
98.32907972222223
 20
156.4067088888889
 30
0.0
  0
VERTEX
  5
55A
  8
DEFAULT
 62
   178
 10
98.31355749999999
 20
156.3612005555555
 30
0.0
  0
VERTEX
  5
55B
  8
DEFAULT
 62
   178
 10
98.30614916666667
 20
156.3082838888889
 30
0.0
  0
SEQEND
  5
55C
  8
DEFAULT
 62
   178
  0
POLYLINE
  5
55D
  8
DEFAULT
 62
   178
 66
     1
 10
0.0
 20
0.0
 30
0.0
  0
VERTEX
  5
55E
  8
DEFAULT
 62
   178
 10
120.7321972222222
 20
119.0731538888889
 30
0.0
  0
VERTEX
  5
55F
  8
DEFAULT
 62
   178
 10
120.7854666666667
 20
119.0805622222222
 30
0.0
  0
VERTEX
  5
560
  8
DEFAULT
 62
   178
 10
120.8383833333333
 20
119.0957316666667
 30
0.0
  0
VERTEX
  5
561
  8
DEFAULT
 62
   178
 10
120.8842444444444
 20
119.1186622222222
 30
0.0
  0
VERTEX
  5
562
  8
DEFAULT
 62
   178
 10
120.9297527777778
 20
119.1490011111111
 30
0.0
  0
VERTEX
  5
563
  8
DEFAULT
 62
   178
 10
120.9678527777778
 20
119.1871011111111
 30
0.0
  0
VERTEX
  5
564
  8
DEFAULT
 62
   178
 10
120.9978388888889
 20
119.2326094444444
 30
0.0
  0
VERTEX
  5
565
  8
DEFAULT
 62
   178
 10
121.0207694444444
 20
119.2781177777778
 30
0.0
  0
VERTEX
  5
566
  8
DEFAULT
 62
   178
 10
121.0359388888889
 20
119.3313872222222
 30
0.0
  0
VERTEX
  5
567
  8
DEFAULT
 62
   178
 10
121.0437
 20
119.3846566666666
 30
0.0
  0
SEQEND
  5
568
  8
DEFAULT
 62
   178
  0
POLYLINE
  5
569
  8
DEFAULT
 62
   178
 66
     1
 10
0.0
 20
0.0
 30
0.0
  0
VERTEX
  5
56A
  8
DEFAULT
 62
   178
 10
120.7321972222222
 20
119.0882880555556
 30
0.0
  0
VERTEX
  5
56B
  8
DEFAULT
 62
   178
 10
120.7854666666667
 20
119.0956963888889
 30
0.0
  0
VERTEX
  5
56C
  8
DEFAULT
 62
   178
 10
120.830975
 20
119.1034575
 30
0.0
  0
VERTEX
  5
56D
  8
DEFAULT
 62
   178
 10
120.8842444444444
 20
119.1263880555556
 30
0.0
  0
VERTEX
  5
56E
  8
DEFAULT
 62
   178
 10
120.9219916666667
 20
119.1567269444444
 30
0.0
  0
VERTEX
  5
56F
  8
DEFAULT
 62
   178
 10
120.9600916666667
 20
119.1944741666667
 30
0.0
  0
VERTEX
  5
570
  8
DEFAULT
 62
   178
 10
120.9904305555556
 20
119.2403352777778
 30
0.0
  0
VERTEX
  5
571
  8
DEFAULT
 62
   178
 10
121.0133611111111
 20
119.2858436111111
 30
0.0
  0
VERTEX
  5
572
  8
DEFAULT
 62
   178
 10
121.0285305555555
 20
119.3391130555556
 30
0.0
  0
VERTEX
  5
573
  8
DEFAULT
 62
   178
 10
121.0285305555555
 20
119.3846213888889
 30
0.0
  0
SEQEND
  5
574
  8
DEFAULT
 62
   178
  0
LINE
  5
575
  8
DEFAULT
 62
   178
 10
121.7498905555555
 20
156.1714061111111
 30
0.0
 11
121.6585211111111
 21
156.3767227777778
 31
0.0
  0
POLYLINE
  5
576
  8
DEFAULT
 62
   178
 66
     1
 10
0.0
 20
0.0
 30
0.0
  0
VERTEX
  5
577
  8
DEFAULT
 62
   178
 10
121.6891775
 20
148.6302166666666
 30
0.0
  0
VERTEX
  5
578
  8
DEFAULT
 62
   178
 10
121.6817691666666
 20
148.6834861111111
 30
0.0
  0
VERTEX
  5
579
  8
DEFAULT
 62
   178
 10
121.6662469444444
 20
148.7364027777778
 30
0.0
  0
VERTEX
  5
57A
  8
DEFAULT
 62
   178
 10
121.6436691666666
 20
148.7822638888889
 30
0.0
  0
VERTEX
  5
57B
  8
DEFAULT
 62
   178
 10
121.6133302777778
 20
148.8277722222222
 30
0.0
  0
VERTEX
  5
57C
  8
DEFAULT
 62
   178
 10
121.5829913888889
 20
148.8581111111111
 30
0.0
  0
VERTEX
  5
57D
  8
DEFAULT
 62
   178
 10
121.5371302777778
 20
148.88845
 30
0.0
  0
VERTEX
  5
57E
  8
DEFAULT
 62
   178
 10
121.4916219444444
 20
148.9113805555556
 30
0.0
  0
VERTEX
  5
57F
  8
DEFAULT
 62
   178
 10
121.4383525
 20
148.92655
 30
0.0
  0
VERTEX
  5
580
  8
DEFAULT
 62
   178
 10
121.3854358333333
 20
148.9339583333333
 30
0.0
  0
SEQEND
  5
581
  8
DEFAULT
 62
   178
  0
LINE
  5
582
  8
DEFAULT
 62
   178
 10
121.6586269444444
 20
156.3765816666666
 30
0.0
 11
121.4462547222222
 21
156.4675983333333
 31
0.0
  0
LINE
  5
583
  8
DEFAULT
 62
   178
 10
121.6206327777777
 20
156.3460663888889
 30
0.0
 11
121.4460077777778
 21
156.3841663888889
 31
0.0
  0
LINE
  5
584
  8
DEFAULT
 62
   178
 10
121.6586269444445
 20
156.1789908333333
 30
0.0
 11
121.6205269444444
 21
156.3462075
 31
0.0
  0
POLYLINE
  5
585
  8
DEFAULT
 62
   178
 66
     1
 10
0.0
 20
0.0
 30
0.0
  0
VERTEX
  5
586
  8
DEFAULT
 62
   178
 10
121.6359786111111
 20
143.1851269444444
 30
0.0
  0
VERTEX
  5
587
  8
DEFAULT
 62
   178
 10
121.6359786111111
 20
143.2383963888889
 30
0.0
  0
VERTEX
  5
588
  8
DEFAULT
 62
   178
 10
121.6208091666666
 20
143.2916658333333
 30
0.0
  0
VERTEX
  5
589
  8
DEFAULT
 62
   178
 10
121.5978786111111
 20
143.3371741666666
 30
0.0
  0
VERTEX
  5
58A
  8
DEFAULT
 62
   178
 10
121.5675397222222
 20
143.3823297222222
 30
0.0
  0
VERTEX
  5
58B
  8
DEFAULT
 62
   178
 10
121.5297925
 20
143.4130213888889
 30
0.0
  0
VERTEX
  5
58C
  8
DEFAULT
 62
   178
 10
121.4916925
 20
143.4433602777778
 30
0.0
  0
VERTEX
  5
58D
  8
DEFAULT
 62
   178
 10
121.4461841666666
 20
143.4659380555555
 30
0.0
  0
VERTEX
  5
58E
  8
DEFAULT
 62
   178
 10
121.3929147222222
 20
143.4811075
 30
0.0
  0
VERTEX
  5
58F
  8
DEFAULT
 62
   178
 10
121.3396452777778
 20
143.4888686111111
 30
0.0
  0
SEQEND
  5
590
  8
DEFAULT
 62
   178
  0
POLYLINE
  5
591
  8
DEFAULT
 62
   178
 66
     1
 10
0.0
 20
0.0
 30
0.0
  0
VERTEX
  5
592
  8
DEFAULT
 62
   178
 10
121.8789719444444
 20
156.5739255555555
 30
0.0
  0
VERTEX
  5
593
  8
DEFAULT
 62
   178
 10
121.8789719444444
 20
156.6194338888889
 30
0.0
  0
VERTEX
  5
594
  8
DEFAULT
 62
   178
 10
121.8638025
 20
156.6727033333333
 30
0.0
  0
VERTEX
  5
595
  8
DEFAULT
 62
   178
 10
121.8412247222222
 20
156.7182116666666
 30
0.0
  0
VERTEX
  5
596
  8
DEFAULT
 62
   178
 10
121.8105330555555
 20
156.76372
 30
0.0
  0
VERTEX
  5
597
  8
DEFAULT
 62
   178
 10
121.7801941666667
 20
156.7940588888889
 30
0.0
  0
VERTEX
  5
598
  8
DEFAULT
 62
   178
 10
121.7346858333333
 20
156.8243977777778
 30
0.0
  0
VERTEX
  5
599
  8
DEFAULT
 62
   178
 10
121.6891775
 20
156.8473283333333
 30
0.0
  0
VERTEX
  5
59A
  8
DEFAULT
 62
   178
 10
121.6436691666667
 20
156.8624977777777
 30
0.0
  0
VERTEX
  5
59B
  8
DEFAULT
 62
   178
 10
121.5903997222222
 20
156.8699061111111
 30
0.0
  0
SEQEND
  5
59C
  8
DEFAULT
 62
   178
  0
LINE
  5
59D
  8
DEFAULT
 62
   178
 10
121.5902938888889
 20
156.8700472222222
 30
0.0
 11
121.5828855555555
 21
156.8700472222222
 31
0.0
  0
POLYLINE
  5
59E
  8
DEFAULT
 62
   178
 66
     1
 10
0.0
 20
0.0
 30
0.0
  0
VERTEX
  5
59F
  8
DEFAULT
 62
   178
 10
101.7920169444444
 20
107.8561963888889
 30
0.0
  0
VERTEX
  5
5A0
  8
DEFAULT
 62
   178
 10
101.7994252777778
 20
107.7348408333333
 30
0.0
  0
VERTEX
  5
5A1
  8
DEFAULT
 62
   178
 10
101.8145947222222
 20
107.6131325
 30
0.0
  0
VERTEX
  5
5A2
  8
DEFAULT
 62
   178
 10
101.8375252777778
 20
107.4991852777778
 30
0.0
  0
VERTEX
  5
5A3
  8
DEFAULT
 62
   178
 10
101.8678641666666
 20
107.3852380555556
 30
0.0
  0
VERTEX
  5
5A4
  8
DEFAULT
 62
   178
 10
101.9133725
 20
107.2716436111111
 30
0.0
  0
VERTEX
  5
5A5
  8
DEFAULT
 62
   178
 10
101.9666419444444
 20
107.1651047222222
 30
0.0
  0
VERTEX
  5
5A6
  8
DEFAULT
 62
   178
 10
102.0273197222222
 20
107.0589186111111
 30
0.0
  0
VERTEX
  5
5A7
  8
DEFAULT
 62
   178
 10
102.0954058333333
 20
106.9601408333333
 30
0.0
  0
VERTEX
  5
5A8
  8
DEFAULT
 62
   178
 10
102.1716058333333
 20
106.8687713888889
 30
0.0
  0
VERTEX
  5
5A9
  8
DEFAULT
 62
   178
 10
102.2629752777778
 20
106.7855158333333
 30
0.0
  0
VERTEX
  5
5AA
  8
DEFAULT
 62
   178
 10
102.3536391666667
 20
106.7093158333333
 30
0.0
  0
VERTEX
  5
5AB
  8
DEFAULT
 62
   178
 10
102.4527697222222
 20
106.6334686111111
 30
0.0
  0
VERTEX
  5
5AC
  8
DEFAULT
 62
   178
 10
102.5511947222222
 20
106.5727908333333
 30
0.0
  0
VERTEX
  5
5AD
  8
DEFAULT
 62
   178
 10
102.6577336111111
 20
106.5198741666667
 30
0.0
  0
VERTEX
  5
5AE
  8
DEFAULT
 62
   178
 10
102.7713280555556
 20
106.4817741666667
 30
0.0
  0
VERTEX
  5
5AF
  8
DEFAULT
 62
   178
 10
102.8856280555556
 20
106.4436741666667
 30
0.0
  0
VERTEX
  5
5B0
  8
DEFAULT
 62
   178
 10
103.0069836111111
 20
106.4210963888889
 30
0.0
  0
VERTEX
  5
5B1
  8
DEFAULT
 62
   178
 10
103.1209308333333
 20
106.4055741666667
 30
0.0
  0
VERTEX
  5
5B2
  8
DEFAULT
 62
   178
 10
103.2422863888889
 20
106.3981658333333
 30
0.0
  0
SEQEND
  5
5B3
  8
DEFAULT
 62
   178
  0
POLYLINE
  5
5B4
  8
DEFAULT
 62
   178
 66
     1
 10
0.0
 20
0.0
 30
0.0
  0
VERTEX
  5
5B5
  8
DEFAULT
 62
   178
 10
106.2650980555556
 20
107.8561963888889
 30
0.0
  0
VERTEX
  5
5B6
  8
DEFAULT
 62
   178
 10
106.2650980555556
 20
107.7348408333333
 30
0.0
  0
VERTEX
  5
5B7
  8
DEFAULT
 62
   178
 10
106.2802675
 20
107.6131325
 30
0.0
  0
VERTEX
  5
5B8
  8
DEFAULT
 62
   178
 10
106.3028452777778
 20
107.4991852777778
 30
0.0
  0
VERTEX
  5
5B9
  8
DEFAULT
 62
   178
 10
106.3409452777778
 20
107.3852380555556
 30
0.0
  0
VERTEX
  5
5BA
  8
DEFAULT
 62
   178
 10
106.3864536111111
 20
107.2716436111111
 30
0.0
  0
VERTEX
  5
5BB
  8
DEFAULT
 62
   178
 10
106.4319619444444
 20
107.1651047222222
 30
0.0
  0
VERTEX
  5
5BC
  8
DEFAULT
 62
   178
 10
106.5688397222222
 20
106.9675491666667
 30
0.0
  0
VERTEX
  5
5BD
  8
DEFAULT
 62
   178
 10
106.6446869444444
 20
106.8765325
 30
0.0
  0
VERTEX
  5
5BE
  8
DEFAULT
 62
   178
 10
106.7282952777778
 20
106.7929241666667
 30
0.0
  0
VERTEX
  5
5BF
  8
DEFAULT
 62
   178
 10
106.8193119444445
 20
106.7170769444444
 30
0.0
  0
VERTEX
  5
5C0
  8
DEFAULT
 62
   178
 10
106.9180897222222
 20
106.6412297222222
 30
0.0
  0
VERTEX
  5
5C1
  8
DEFAULT
 62
   178
 10
107.0168675
 20
106.5805519444444
 30
0.0
  0
VERTEX
  5
5C2
  8
DEFAULT
 62
   178
 10
107.1230536111111
 20
106.5272825
 30
0.0
  0
VERTEX
  5
5C3
  8
DEFAULT
 62
   178
 10
107.2370008333333
 20
106.4891825
 30
0.0
  0
VERTEX
  5
5C4
  8
DEFAULT
 62
   178
 10
107.3509480555555
 20
106.4514352777778
 30
0.0
  0
VERTEX
  5
5C5
  8
DEFAULT
 62
   178
 10
107.4648952777778
 20
106.4285047222222
 30
0.0
  0
VERTEX
  5
5C6
  8
DEFAULT
 62
   178
 10
107.5866036111111
 20
106.4133352777778
 30
0.0
  0
VERTEX
  5
5C7
  8
DEFAULT
 62
   178
 10
107.7079591666667
 20
106.4055741666667
 30
0.0
  0
SEQEND
  5
5C8
  8
DEFAULT
 62
   178
  0
POLYLINE
  5
5C9
  8
DEFAULT
 62
   178
 66
     1
 10
0.0
 20
0.0
 30
0.0
  0
VERTEX
  5
5CA
  8
DEFAULT
 62
   178
 10
107.7079238888889
 20
106.4057152777778
 30
0.0
  0
VERTEX
  5
5CB
  8
DEFAULT
 62
   178
 10
107.8218711111111
 20
106.4134763888889
 30
0.0
  0
VERTEX
  5
5CC
  8
DEFAULT
 62
   178
 10
107.9432266666666
 20
106.4286458333333
 30
0.0
  0
VERTEX
  5
5CD
  8
DEFAULT
 62
   178
 10
108.0571738888889
 20
106.4512236111111
 30
0.0
  0
VERTEX
  5
5CE
  8
DEFAULT
 62
   178
 10
108.1788822222222
 20
106.4893236111111
 30
0.0
  0
VERTEX
  5
5CF
  8
DEFAULT
 62
   178
 10
108.2850683333333
 20
106.5274236111111
 30
0.0
  0
VERTEX
  5
5D0
  8
DEFAULT
 62
   178
 10
108.3912544444444
 20
106.5803402777778
 30
0.0
  0
VERTEX
  5
5D1
  8
DEFAULT
 62
   178
 10
108.4977933333333
 20
106.6410180555555
 30
0.0
  0
VERTEX
  5
5D2
  8
DEFAULT
 62
   178
 10
108.5965711111111
 20
106.7172180555555
 30
0.0
  0
VERTEX
  5
5D3
  8
DEFAULT
 62
   178
 10
108.6875877777778
 20
106.7930652777778
 30
0.0
  0
VERTEX
  5
5D4
  8
DEFAULT
 62
   178
 10
108.7711961111111
 20
106.8766736111111
 30
0.0
  0
VERTEX
  5
5D5
  8
DEFAULT
 62
   178
 10
108.8470433333333
 20
106.9676902777778
 30
0.0
  0
VERTEX
  5
5D6
  8
DEFAULT
 62
   178
 10
108.9151294444444
 20
107.0664680555555
 30
0.0
  0
VERTEX
  5
5D7
  8
DEFAULT
 62
   178
 10
108.97616
 20
107.1652458333333
 30
0.0
  0
VERTEX
  5
5D8
  8
DEFAULT
 62
   178
 10
109.0294294444444
 20
107.2714319444444
 30
0.0
  0
VERTEX
  5
5D9
  8
DEFAULT
 62
   178
 10
109.0749377777778
 20
107.3853791666667
 30
0.0
  0
VERTEX
  5
5DA
  8
DEFAULT
 62
   178
 10
109.1052766666667
 20
107.4993263888889
 30
0.0
  0
VERTEX
  5
5DB
  8
DEFAULT
 62
   178
 10
109.1282072222222
 20
107.6132736111111
 30
0.0
  0
VERTEX
  5
5DC
  8
DEFAULT
 62
   178
 10
109.1430238888889
 20
107.7346291666667
 30
0.0
  0
VERTEX
  5
5DD
  8
DEFAULT
 62
   178
 10
109.150785
 20
107.8563375
 30
0.0
  0
SEQEND
  5
5DE
  8
DEFAULT
 62
   178
  0
POLYLINE
  5
5DF
  8
DEFAULT
 62
   178
 66
     1
 10
0.0
 20
0.0
 30
0.0
  0
VERTEX
  5
5E0
  8
DEFAULT
 62
   178
 10
103.2424275
 20
106.3980952777778
 30
0.0
  0
VERTEX
  5
5E1
  8
DEFAULT
 62
   178
 10
103.3641358333334
 20
106.4058563888889
 30
0.0
  0
VERTEX
  5
5E2
  8
DEFAULT
 62
   178
 10
103.4854913888889
 20
106.4210258333333
 30
0.0
  0
VERTEX
  5
5E3
  8
DEFAULT
 62
   178
 10
103.5994386111111
 20
106.4436036111111
 30
0.0
  0
VERTEX
  5
5E4
  8
DEFAULT
 62
   178
 10
103.8273330555556
 20
106.5198036111111
 30
0.0
  0
VERTEX
  5
5E5
  8
DEFAULT
 62
   178
 10
103.9335191666667
 20
106.5727202777778
 30
0.0
  0
VERTEX
  5
5E6
  8
DEFAULT
 62
   178
 10
104.0400580555556
 20
106.6337508333333
 30
0.0
  0
VERTEX
  5
5E7
  8
DEFAULT
 62
   178
 10
104.1384830555556
 20
106.7095980555555
 30
0.0
  0
VERTEX
  5
5E8
  8
DEFAULT
 62
   178
 10
104.2294997222222
 20
106.7854452777778
 30
0.0
  0
VERTEX
  5
5E9
  8
DEFAULT
 62
   178
 10
104.3134608333333
 20
106.8690536111111
 30
0.0
  0
VERTEX
  5
5EA
  8
DEFAULT
 62
   178
 10
104.3893080555555
 20
106.9600702777778
 30
0.0
  0
VERTEX
  5
5EB
  8
DEFAULT
 62
   178
 10
104.4651552777778
 20
107.0588480555556
 30
0.0
  0
VERTEX
  5
5EC
  8
DEFAULT
 62
   178
 10
104.5258330555556
 20
107.1650341666667
 30
0.0
  0
VERTEX
  5
5ED
  8
DEFAULT
 62
   178
 10
104.5791025
 20
107.2715730555555
 30
0.0
  0
VERTEX
  5
5EE
  8
DEFAULT
 62
   178
 10
104.6172025
 20
107.3855202777778
 30
0.0
  0
VERTEX
  5
5EF
  8
DEFAULT
 62
   178
 10
104.6549497222222
 20
107.4994675
 30
0.0
  0
VERTEX
  5
5F0
  8
DEFAULT
 62
   178
 10
104.6775275
 20
107.6134147222222
 30
0.0
  0
VERTEX
  5
5F1
  8
DEFAULT
 62
   178
 10
104.6930497222222
 20
107.7347702777778
 30
0.0
  0
VERTEX
  5
5F2
  8
DEFAULT
 62
   178
 10
104.7004580555555
 20
107.8561258333333
 30
0.0
  0
SEQEND
  5
5F3
  8
DEFAULT
 62
   178
  0
POLYLINE
  5
5F4
  8
DEFAULT
 62
   178
 66
     1
 10
0.0
 20
0.0
 30
0.0
  0
VERTEX
  5
5F5
  8
DEFAULT
 62
   178
 10
103.2424275
 20
109.3067480555555
 30
0.0
  0
VERTEX
  5
5F6
  8
DEFAULT
 62
   178
 10
103.1210719444445
 20
109.3067480555555
 30
0.0
  0
VERTEX
  5
5F7
  8
DEFAULT
 62
   178
 10
103.0071247222222
 20
109.2915786111111
 30
0.0
  0
VERTEX
  5
5F8
  8
DEFAULT
 62
   178
 10
102.8854163888889
 20
109.2612397222222
 30
0.0
  0
VERTEX
  5
5F9
  8
DEFAULT
 62
   178
 10
102.7714691666667
 20
109.2309008333333
 30
0.0
  0
VERTEX
  5
5FA
  8
DEFAULT
 62
   178
 10
102.6575219444444
 20
109.1853925
 30
0.0
  0
VERTEX
  5
5FB
  8
DEFAULT
 62
   178
 10
102.5513358333333
 20
109.1321230555555
 30
0.0
  0
VERTEX
  5
5FC
  8
DEFAULT
 62
   178
 10
102.4525580555556
 20
109.0714452777778
 30
0.0
  0
VERTEX
  5
5FD
  8
DEFAULT
 62
   178
 10
102.3537802777778
 20
109.0030063888889
 30
0.0
  0
VERTEX
  5
5FE
  8
DEFAULT
 62
   178
 10
102.2627636111111
 20
108.9271591666666
 30
0.0
  0
VERTEX
  5
5FF
  8
DEFAULT
 62
   178
 10
102.1713941666667
 20
108.8357897222222
 30
0.0
  0
VERTEX
  5
600
  8
DEFAULT
 62
   178
 10
102.0955469444445
 20
108.7447730555555
 30
0.0
  0
VERTEX
  5
601
  8
DEFAULT
 62
   178
 10
102.0274608333333
 20
108.6459952777778
 30
0.0
  0
VERTEX
  5
602
  8
DEFAULT
 62
   178
 10
101.9667830555556
 20
108.5475702777778
 30
0.0
  0
VERTEX
  5
603
  8
DEFAULT
 62
   178
 10
101.9135136111111
 20
108.4410313888889
 30
0.0
  0
VERTEX
  5
604
  8
DEFAULT
 62
   178
 10
101.8676525
 20
108.3270841666667
 30
0.0
  0
VERTEX
  5
605
  8
DEFAULT
 62
   178
 10
101.8376663888889
 20
108.2131369444444
 30
0.0
  0
VERTEX
  5
606
  8
DEFAULT
 62
   178
 10
101.8147358333333
 20
108.0917813888889
 30
0.0
  0
VERTEX
  5
607
  8
DEFAULT
 62
   178
 10
101.7995663888889
 20
107.9778341666667
 30
0.0
  0
VERTEX
  5
608
  8
DEFAULT
 62
   178
 10
101.7921580555556
 20
107.8561258333333
 30
0.0
  0
SEQEND
  5
609
  8
DEFAULT
 62
   178
  0
POLYLINE
  5
60A
  8
DEFAULT
 62
   178
 66
     1
 10
0.0
 20
0.0
 30
0.0
  0
VERTEX
  5
60B
  8
DEFAULT
 62
   178
 10
98.78462166666667
 20
109.2991633333333
 30
0.0
  0
VERTEX
  5
60C
  8
DEFAULT
 62
   178
 10
98.66326611111111
 20
109.291755
 30
0.0
  0
VERTEX
  5
60D
  8
DEFAULT
 62
   178
 10
98.54931888888889
 20
109.2765855555555
 30
0.0
  0
VERTEX
  5
60E
  8
DEFAULT
 62
   178
 10
98.42761055555555
 20
109.253655
 30
0.0
  0
VERTEX
  5
60F
  8
DEFAULT
 62
   178
 10
98.31366333333334
 20
109.2233161111111
 30
0.0
  0
VERTEX
  5
610
  8
DEFAULT
 62
   178
 10
98.1997161111111
 20
109.1778077777778
 30
0.0
  0
VERTEX
  5
611
  8
DEFAULT
 62
   178
 10
98.09353
 20
109.1245383333333
 30
0.0
  0
VERTEX
  5
612
  8
DEFAULT
 62
   178
 10
97.99475222222223
 20
109.0638605555556
 30
0.0
  0
VERTEX
  5
613
  8
DEFAULT
 62
   178
 10
97.89597444444443
 20
108.9954216666667
 30
0.0
  0
VERTEX
  5
614
  8
DEFAULT
 62
   178
 10
97.80495777777779
 20
108.9195744444444
 30
0.0
  0
VERTEX
  5
615
  8
DEFAULT
 62
   178
 10
97.72134944444444
 20
108.8359661111111
 30
0.0
  0
VERTEX
  5
616
  8
DEFAULT
 62
   178
 10
97.64550222222222
 20
108.7445966666667
 30
0.0
  0
VERTEX
  5
617
  8
DEFAULT
 62
   178
 10
97.57706333333333
 20
108.6461716666667
 30
0.0
  0
VERTEX
  5
618
  8
DEFAULT
 62
   178
 10
97.51638555555554
 20
108.5399855555556
 30
0.0
  0
VERTEX
  5
619
  8
DEFAULT
 62
   178
 10
97.46311611111112
 20
108.4334466666667
 30
0.0
  0
VERTEX
  5
61A
  8
DEFAULT
 62
   178
 10
97.41760777777777
 20
108.3269077777778
 30
0.0
  0
VERTEX
  5
61B
  8
DEFAULT
 62
   178
 10
97.37986055555554
 20
108.2055522222222
 30
0.0
  0
VERTEX
  5
61C
  8
DEFAULT
 62
   178
 10
97.35692999999999
 20
108.0919577777778
 30
0.0
  0
VERTEX
  5
61D
  8
DEFAULT
 62
   178
 10
97.34176055555557
 20
107.9702494444444
 30
0.0
  0
VERTEX
  5
61E
  8
DEFAULT
 62
   178
 10
97.34176055555557
 20
107.8563022222222
 30
0.0
  0
SEQEND
  5
61F
  8
DEFAULT
 62
   178
  0
POLYLINE
  5
620
  8
DEFAULT
 62
   178
 66
     1
 10
0.0
 20
0.0
 30
0.0
  0
VERTEX
  5
621
  8
DEFAULT
 62
   178
 10
109.1508908333333
 20
107.8561963888889
 30
0.0
  0
VERTEX
  5
622
  8
DEFAULT
 62
   178
 10
109.1431297222222
 20
107.9701436111111
 30
0.0
  0
VERTEX
  5
623
  8
DEFAULT
 62
   178
 10
109.1279602777778
 20
108.0918519444444
 30
0.0
  0
VERTEX
  5
624
  8
DEFAULT
 62
   178
 10
109.1053825
 20
108.2054463888889
 30
0.0
  0
VERTEX
  5
625
  8
DEFAULT
 62
   178
 10
109.0750436111111
 20
108.3271547222222
 30
0.0
  0
VERTEX
  5
626
  8
DEFAULT
 62
   178
 10
109.0291825
 20
108.4333408333333
 30
0.0
  0
VERTEX
  5
627
  8
DEFAULT
 62
   178
 10
108.9762658333333
 20
108.5398797222222
 30
0.0
  0
VERTEX
  5
628
  8
DEFAULT
 62
   178
 10
108.9152352777778
 20
108.6460658333333
 30
0.0
  0
VERTEX
  5
629
  8
DEFAULT
 62
   178
 10
108.8471491666667
 20
108.7448436111111
 30
0.0
  0
VERTEX
  5
62A
  8
DEFAULT
 62
   178
 10
108.7709491666667
 20
108.8358602777778
 30
0.0
  0
VERTEX
  5
62B
  8
DEFAULT
 62
   178
 10
108.6876936111111
 20
108.9194686111111
 30
0.0
  0
VERTEX
  5
62C
  8
DEFAULT
 62
   178
 10
108.5963241666667
 20
108.9953158333333
 30
0.0
  0
VERTEX
  5
62D
  8
DEFAULT
 62
   178
 10
108.4975463888889
 20
109.0637547222222
 30
0.0
  0
VERTEX
  5
62E
  8
DEFAULT
 62
   178
 10
108.3913602777778
 20
109.1244325
 30
0.0
  0
VERTEX
  5
62F
  8
DEFAULT
 62
   178
 10
108.2851741666667
 20
109.1777019444444
 30
0.0
  0
VERTEX
  5
630
  8
DEFAULT
 62
   178
 10
108.1786352777778
 20
109.2232102777778
 30
0.0
  0
VERTEX
  5
631
  8
DEFAULT
 62
   178
 10
108.0572797222222
 20
109.2535491666667
 30
0.0
  0
VERTEX
  5
632
  8
DEFAULT
 62
   178
 10
107.9433325
 20
109.2764797222222
 30
0.0
  0
VERTEX
  5
633
  8
DEFAULT
 62
   178
 10
107.8219769444444
 20
109.2916491666667
 30
0.0
  0
VERTEX
  5
634
  8
DEFAULT
 62
   178
 10
107.7080297222222
 20
109.2990575
 30
0.0
  0
SEQEND
  5
635
  8
DEFAULT
 62
   178
  0
POLYLINE
  5
636
  8
DEFAULT
 62
   178
 66
     1
 10
0.0
 20
0.0
 30
0.0
  0
VERTEX
  5
637
  8
DEFAULT
 62
   178
 10
107.7079238888889
 20
109.2991633333333
 30
0.0
  0
VERTEX
  5
638
  8
DEFAULT
 62
   178
 10
107.5865683333333
 20
109.291755
 30
0.0
  0
VERTEX
  5
639
  8
DEFAULT
 62
   178
 10
107.46486
 20
109.2765855555555
 30
0.0
  0
VERTEX
  5
63A
  8
DEFAULT
 62
   178
 10
107.3509127777778
 20
109.253655
 30
0.0
  0
VERTEX
  5
63B
  8
DEFAULT
 62
   178
 10
107.2369655555556
 20
109.2233161111111
 30
0.0
  0
VERTEX
  5
63C
  8
DEFAULT
 62
   178
 10
107.1230183333333
 20
109.1778077777778
 30
0.0
  0
VERTEX
  5
63D
  8
DEFAULT
 62
   178
 10
107.0168322222222
 20
109.1245383333333
 30
0.0
  0
VERTEX
  5
63E
  8
DEFAULT
 62
   178
 10
106.9180544444445
 20
109.0638605555556
 30
0.0
  0
VERTEX
  5
63F
  8
DEFAULT
 62
   178
 10
106.8192766666667
 20
108.9954216666667
 30
0.0
  0
VERTEX
  5
640
  8
DEFAULT
 62
   178
 10
106.72826
 20
108.9195744444444
 30
0.0
  0
VERTEX
  5
641
  8
DEFAULT
 62
   178
 10
106.6446516666667
 20
108.8359661111111
 30
0.0
  0
VERTEX
  5
642
  8
DEFAULT
 62
   178
 10
106.5688044444444
 20
108.7445966666667
 30
0.0
  0
VERTEX
  5
643
  8
DEFAULT
 62
   178
 10
106.5003655555555
 20
108.6461716666667
 30
0.0
  0
VERTEX
  5
644
  8
DEFAULT
 62
   178
 10
106.4322794444444
 20
108.5399855555556
 30
0.0
  0
VERTEX
  5
645
  8
DEFAULT
 62
   178
 10
106.3864183333333
 20
108.4334466666667
 30
0.0
  0
VERTEX
  5
646
  8
DEFAULT
 62
   178
 10
106.34091
 20
108.3269077777778
 30
0.0
  0
VERTEX
  5
647
  8
DEFAULT
 62
   178
 10
106.30281
 20
108.2055522222222
 30
0.0
  0
VERTEX
  5
648
  8
DEFAULT
 62
   178
 10
106.2802322222222
 20
108.0919577777778
 30
0.0
  0
VERTEX
  5
649
  8
DEFAULT
 62
   178
 10
106.2650627777778
 20
107.9702494444444
 30
0.0
  0
VERTEX
  5
64A
  8
DEFAULT
 62
   178
 10
106.2650627777778
 20
107.8563022222222
 30
0.0
  0
SEQEND
  5
64B
  8
DEFAULT
 62
   178
  0
POLYLINE
  5
64C
  8
DEFAULT
 62
   178
 66
     1
 10
0.0
 20
0.0
 30
0.0
  0
VERTEX
  5
64D
  8
DEFAULT
 62
   178
 10
104.7005286111111
 20
107.8561963888889
 30
0.0
  0
VERTEX
  5
64E
  8
DEFAULT
 62
   178
 10
104.6931202777778
 20
107.9779047222222
 30
0.0
  0
VERTEX
  5
64F
  8
DEFAULT
 62
   178
 10
104.6775980555555
 20
108.0918519444444
 30
0.0
  0
VERTEX
  5
650
  8
DEFAULT
 62
   178
 10
104.6550202777778
 20
108.2132075
 30
0.0
  0
VERTEX
  5
651
  8
DEFAULT
 62
   178
 10
104.6169202777778
 20
108.3271547222222
 30
0.0
  0
VERTEX
  5
652
  8
DEFAULT
 62
   178
 10
104.5791730555556
 20
108.4411019444444
 30
0.0
  0
VERTEX
  5
653
  8
DEFAULT
 62
   178
 10
104.5259036111111
 20
108.5472880555556
 30
0.0
  0
VERTEX
  5
654
  8
DEFAULT
 62
   178
 10
104.3890258333333
 20
108.7448436111111
 30
0.0
  0
VERTEX
  5
655
  8
DEFAULT
 62
   178
 10
104.3131786111111
 20
108.8358602777778
 30
0.0
  0
VERTEX
  5
656
  8
DEFAULT
 62
   178
 10
104.2295702777778
 20
108.9272297222222
 30
0.0
  0
VERTEX
  5
657
  8
DEFAULT
 62
   178
 10
104.1385536111111
 20
109.0030769444444
 30
0.0
  0
VERTEX
  5
658
  8
DEFAULT
 62
   178
 10
104.0397758333333
 20
109.0715158333333
 30
0.0
  0
VERTEX
  5
659
  8
DEFAULT
 62
   178
 10
103.9335897222222
 20
109.1321936111111
 30
0.0
  0
VERTEX
  5
65A
  8
DEFAULT
 62
   178
 10
103.8274036111111
 20
109.1851102777778
 30
0.0
  0
VERTEX
  5
65B
  8
DEFAULT
 62
   178
 10
103.7131036111111
 20
109.2309713888889
 30
0.0
  0
VERTEX
  5
65C
  8
DEFAULT
 62
   178
 10
103.5995091666667
 20
109.2613102777778
 30
0.0
  0
VERTEX
  5
65D
  8
DEFAULT
 62
   178
 10
103.4852091666667
 20
109.2916491666667
 30
0.0
  0
VERTEX
  5
65E
  8
DEFAULT
 62
   178
 10
103.3638536111111
 20
109.3068186111111
 30
0.0
  0
VERTEX
  5
65F
  8
DEFAULT
 62
   178
 10
103.2424980555556
 20
109.3068186111111
 30
0.0
  0
SEQEND
  5
660
  8
DEFAULT
 62
   178
  0
POLYLINE
  5
661
  8
DEFAULT
 62
   178
 66
     1
 10
0.0
 20
0.0
 30
0.0
  0
VERTEX
  5
662
  8
DEFAULT
 62
   178
 10
98.78462166666664
 20
106.4057152777778
 30
0.0
  0
VERTEX
  5
663
  8
DEFAULT
 62
   178
 10
98.90597722222222
 20
106.4134763888889
 30
0.0
  0
VERTEX
  5
664
  8
DEFAULT
 62
   178
 10
99.01992444444443
 20
106.4286458333333
 30
0.0
  0
VERTEX
  5
665
  8
DEFAULT
 62
   178
 10
99.13387166666666
 20
106.4512236111111
 30
0.0
  0
VERTEX
  5
666
  8
DEFAULT
 62
   178
 10
99.25558
 20
106.4893236111111
 30
0.0
  0
VERTEX
  5
667
  8
DEFAULT
 62
   178
 10
99.36176611111112
 20
106.5274236111111
 30
0.0
  0
VERTEX
  5
668
  8
DEFAULT
 62
   178
 10
99.46795222222222
 20
106.5803402777778
 30
0.0
  0
VERTEX
  5
669
  8
DEFAULT
 62
   178
 10
99.5744911111111
 20
106.6410180555555
 30
0.0
  0
VERTEX
  5
66A
  8
DEFAULT
 62
   178
 10
99.67326888888888
 20
106.7172180555555
 30
0.0
  0
VERTEX
  5
66B
  8
DEFAULT
 62
   178
 10
99.76428555555555
 20
106.7930652777778
 30
0.0
  0
VERTEX
  5
66C
  8
DEFAULT
 62
   178
 10
99.8475411111111
 20
106.8766736111111
 30
0.0
  0
VERTEX
  5
66D
  8
DEFAULT
 62
   178
 10
99.9237411111111
 20
106.9676902777778
 30
0.0
  0
VERTEX
  5
66E
  8
DEFAULT
 62
   178
 10
99.99218
 20
107.0664680555555
 30
0.0
  0
VERTEX
  5
66F
  8
DEFAULT
 62
   178
 10
100.0528577777778
 20
107.1652458333333
 30
0.0
  0
VERTEX
  5
670
  8
DEFAULT
 62
   178
 10
100.1057744444444
 20
107.2714319444444
 30
0.0
  0
VERTEX
  5
671
  8
DEFAULT
 62
   178
 10
100.1516355555556
 20
107.3853791666667
 30
0.0
  0
VERTEX
  5
672
  8
DEFAULT
 62
   178
 10
100.1819744444444
 20
107.4993263888889
 30
0.0
  0
VERTEX
  5
673
  8
DEFAULT
 62
   178
 10
100.204905
 20
107.6132736111111
 30
0.0
  0
VERTEX
  5
674
  8
DEFAULT
 62
   178
 10
100.2197216666667
 20
107.7346291666667
 30
0.0
  0
VERTEX
  5
675
  8
DEFAULT
 62
   178
 10
100.2274827777778
 20
107.8563375
 30
0.0
  0
SEQEND
  5
676
  8
DEFAULT
 62
   178
  0
POLYLINE
  5
677
  8
DEFAULT
 62
   178
 66
     1
 10
0.0
 20
0.0
 30
0.0
  0
VERTEX
  5
678
  8
DEFAULT
 62
   178
 10
100.2274475
 20
107.8561963888889
 30
0.0
  0
VERTEX
  5
679
  8
DEFAULT
 62
   178
 10
100.2196863888889
 20
107.9701436111111
 30
0.0
  0
VERTEX
  5
67A
  8
DEFAULT
 62
   178
 10
100.2048697222222
 20
108.0918519444444
 30
0.0
  0
VERTEX
  5
67B
  8
DEFAULT
 62
   178
 10
100.1819391666667
 20
108.2054463888889
 30
0.0
  0
VERTEX
  5
67C
  8
DEFAULT
 62
   178
 10
100.1516002777778
 20
108.3271547222222
 30
0.0
  0
VERTEX
  5
67D
  8
DEFAULT
 62
   178
 10
100.1057391666667
 20
108.4333408333333
 30
0.0
  0
VERTEX
  5
67E
  8
DEFAULT
 62
   178
 10
100.0528225
 20
108.5398797222222
 30
0.0
  0
VERTEX
  5
67F
  8
DEFAULT
 62
   178
 10
99.99214472222224
 20
108.6460658333333
 30
0.0
  0
VERTEX
  5
680
  8
DEFAULT
 62
   178
 10
99.92370583333333
 20
108.7448436111111
 30
0.0
  0
VERTEX
  5
681
  8
DEFAULT
 62
   178
 10
99.84750583333333
 20
108.8358602777778
 30
0.0
  0
VERTEX
  5
682
  8
DEFAULT
 62
   178
 10
99.76425027777778
 20
108.9194686111111
 30
0.0
  0
VERTEX
  5
683
  8
DEFAULT
 62
   178
 10
99.6732336111111
 20
108.9953158333333
 30
0.0
  0
VERTEX
  5
684
  8
DEFAULT
 62
   178
 10
99.57445583333333
 20
109.0637547222222
 30
0.0
  0
VERTEX
  5
685
  8
DEFAULT
 62
   178
 10
99.46791694444444
 20
109.1244325
 30
0.0
  0
VERTEX
  5
686
  8
DEFAULT
 62
   178
 10
99.36173083333333
 20
109.1777019444444
 30
0.0
  0
VERTEX
  5
687
  8
DEFAULT
 62
   178
 10
99.25554472222223
 20
109.2232102777778
 30
0.0
  0
VERTEX
  5
688
  8
DEFAULT
 62
   178
 10
99.13383638888888
 20
109.2535491666667
 30
0.0
  0
VERTEX
  5
689
  8
DEFAULT
 62
   178
 10
99.01988916666666
 20
109.2764797222222
 30
0.0
  0
VERTEX
  5
68A
  8
DEFAULT
 62
   178
 10
98.90594194444445
 20
109.2916491666667
 30
0.0
  0
VERTEX
  5
68B
  8
DEFAULT
 62
   178
 10
98.7845863888889
 20
109.2990575
 30
0.0
  0
SEQEND
  5
68C
  8
DEFAULT
 62
   178
  0
POLYLINE
  5
68D
  8
DEFAULT
 62
   178
 66
     1
 10
0.0
 20
0.0
 30
0.0
  0
VERTEX
  5
68E
  8
DEFAULT
 62
   178
 10
97.34168999999999
 20
107.8561963888889
 30
0.0
  0
VERTEX
  5
68F
  8
DEFAULT
 62
   178
 10
97.34168999999999
 20
107.7348408333333
 30
0.0
  0
VERTEX
  5
690
  8
DEFAULT
 62
   178
 10
97.35685944444442
 20
107.6131325
 30
0.0
  0
VERTEX
  5
691
  8
DEFAULT
 62
   178
 10
97.37978999999999
 20
107.4991852777778
 30
0.0
  0
VERTEX
  5
692
  8
DEFAULT
 62
   178
 10
97.4175372222222
 20
107.3852380555556
 30
0.0
  0
VERTEX
  5
693
  8
DEFAULT
 62
   178
 10
97.46304555555554
 20
107.2716436111111
 30
0.0
  0
VERTEX
  5
694
  8
DEFAULT
 62
   178
 10
97.51631499999999
 20
107.1651047222222
 30
0.0
  0
VERTEX
  5
695
  8
DEFAULT
 62
   178
 10
97.57699277777775
 20
107.0663269444444
 30
0.0
  0
VERTEX
  5
696
  8
DEFAULT
 62
   178
 10
97.64543166666665
 20
106.9675491666667
 30
0.0
  0
VERTEX
  5
697
  8
DEFAULT
 62
   178
 10
97.72127888888888
 20
106.8765325
 30
0.0
  0
VERTEX
  5
698
  8
DEFAULT
 62
   178
 10
97.8048872222222
 20
106.7929241666667
 30
0.0
  0
VERTEX
  5
699
  8
DEFAULT
 62
   178
 10
97.89590388888888
 20
106.7170769444444
 30
0.0
  0
VERTEX
  5
69A
  8
DEFAULT
 62
   178
 10
97.99468166666665
 20
106.6412297222222
 30
0.0
  0
VERTEX
  5
69B
  8
DEFAULT
 62
   178
 10
98.09345944444442
 20
106.5805519444444
 30
0.0
  0
VERTEX
  5
69C
  8
DEFAULT
 62
   178
 10
98.19964555555555
 20
106.5272825
 30
0.0
  0
VERTEX
  5
69D
  8
DEFAULT
 62
   178
 10
98.31359277777776
 20
106.4891825
 30
0.0
  0
VERTEX
  5
69E
  8
DEFAULT
 62
   178
 10
98.42753999999998
 20
106.4514352777778
 30
0.0
  0
VERTEX
  5
69F
  8
DEFAULT
 62
   178
 10
98.54148722222222
 20
106.4285047222222
 30
0.0
  0
VERTEX
  5
6A0
  8
DEFAULT
 62
   178
 10
98.66319555555553
 20
106.4133352777778
 30
0.0
  0
VERTEX
  5
6A1
  8
DEFAULT
 62
   178
 10
98.78455111111109
 20
106.4055741666667
 30
0.0
  0
SEQEND
  5
6A2
  8
DEFAULT
 62
   178
  0
POLYLINE
  5
6A3
  8
DEFAULT
 62
   178
 66
     1
 10
0.0
 20
0.0
 30
0.0
  0
VERTEX
  5
6A4
  8
DEFAULT
 62
   178
 10
92.0712252777778
 20
141.3472252777778
 30
0.0
  0
VERTEX
  5
6A5
  8
DEFAULT
 62
   178
 10
92.01795583333335
 20
141.3398169444444
 30
0.0
  0
VERTEX
  5
6A6
  8
DEFAULT
 62
   178
 10
91.96503916666667
 20
141.3320558333333
 30
0.0
  0
VERTEX
  5
6A7
  8
DEFAULT
 62
   178
 10
91.91176972222222
 20
141.3094780555555
 30
0.0
  0
VERTEX
  5
6A8
  8
DEFAULT
 62
   178
 10
91.86590861111111
 20
141.2787863888889
 30
0.0
  0
VERTEX
  5
6A9
  8
DEFAULT
 62
   178
 10
91.82816138888887
 20
141.2332780555556
 30
0.0
  0
VERTEX
  5
6AA
  8
DEFAULT
 62
   178
 10
91.79782250000001
 20
141.1951780555555
 30
0.0
  0
VERTEX
  5
6AB
  8
DEFAULT
 62
   178
 10
91.77489194444445
 20
141.1422613888889
 30
0.0
  0
VERTEX
  5
6AC
  8
DEFAULT
 62
   178
 10
91.75972250000001
 20
141.0889919444444
 30
0.0
  0
VERTEX
  5
6AD
  8
DEFAULT
 62
   178
 10
91.75972250000001
 20
141.0357225
 30
0.0
  0
SEQEND
  5
6AE
  8
DEFAULT
 62
   178
  0
POLYLINE
  5
6AF
  8
DEFAULT
 62
   178
 66
     1
 10
0.0
 20
0.0
 30
0.0
  0
VERTEX
  5
6B0
  8
DEFAULT
 62
   178
 10
92.07122527777777
 20
141.3320911111111
 30
0.0
  0
VERTEX
  5
6B1
  8
DEFAULT
 62
   178
 10
92.01795583333333
 20
141.3320911111111
 30
0.0
  0
VERTEX
  5
6B2
  8
DEFAULT
 62
   178
 10
91.96503916666667
 20
141.3169216666666
 30
0.0
  0
VERTEX
  5
6B3
  8
DEFAULT
 62
   178
 10
91.91917805555556
 20
141.2939911111111
 30
0.0
  0
VERTEX
  5
6B4
  8
DEFAULT
 62
   178
 10
91.88143083333333
 20
141.2636522222222
 30
0.0
  0
VERTEX
  5
6B5
  8
DEFAULT
 62
   178
 10
91.84333083333333
 20
141.225905
 30
0.0
  0
VERTEX
  5
6B6
  8
DEFAULT
 62
   178
 10
91.81299194444443
 20
141.187805
 30
0.0
  0
VERTEX
  5
6B7
  8
DEFAULT
 62
   178
 10
91.79006138888887
 20
141.1422966666667
 30
0.0
  0
VERTEX
  5
6B8
  8
DEFAULT
 62
   178
 10
91.77489194444445
 20
141.0890272222222
 30
0.0
  0
VERTEX
  5
6B9
  8
DEFAULT
 62
   178
 10
91.77489194444445
 20
141.0357577777778
 30
0.0
  0
SEQEND
  5
6BA
  8
DEFAULT
 62
   178
  0
POLYLINE
  5
6BB
  8
DEFAULT
 62
   178
 66
     1
 10
0.0
 20
0.0
 30
0.0
  0
VERTEX
  5
6BC
  8
DEFAULT
 62
   178
 10
121.0435941666666
 20
141.0358636111111
 30
0.0
  0
VERTEX
  5
6BD
  8
DEFAULT
 62
   178
 10
121.0361858333333
 20
141.0891330555556
 30
0.0
  0
VERTEX
  5
6BE
  8
DEFAULT
 62
   178
 10
121.0206636111111
 20
141.1420497222222
 30
0.0
  0
VERTEX
  5
6BF
  8
DEFAULT
 62
   178
 10
120.9980858333333
 20
141.1953191666666
 30
0.0
  0
VERTEX
  5
6C0
  8
DEFAULT
 62
   178
 10
120.9677469444444
 20
141.2334191666667
 30
0.0
  0
VERTEX
  5
6C1
  8
DEFAULT
 62
   178
 10
120.9296469444444
 20
141.2789275
 30
0.0
  0
VERTEX
  5
6C2
  8
DEFAULT
 62
   178
 10
120.8841386111111
 20
141.3092663888889
 30
0.0
  0
VERTEX
  5
6C3
  8
DEFAULT
 62
   178
 10
120.8386302777778
 20
141.3321969444444
 30
0.0
  0
VERTEX
  5
6C4
  8
DEFAULT
 62
   178
 10
120.7853608333333
 20
141.3396052777778
 30
0.0
  0
VERTEX
  5
6C5
  8
DEFAULT
 62
   178
 10
120.7320913888889
 20
141.3473663888889
 30
0.0
  0
SEQEND
  5
6C6
  8
DEFAULT
 62
   178
  0
POLYLINE
  5
6C7
  8
DEFAULT
 62
   178
 66
     1
 10
0.0
 20
0.0
 30
0.0
  0
VERTEX
  5
6C8
  8
DEFAULT
 62
   178
 10
121.0283894444444
 20
141.0358636111111
 30
0.0
  0
VERTEX
  5
6C9
  8
DEFAULT
 62
   178
 10
121.0283894444444
 20
141.0891330555555
 30
0.0
  0
VERTEX
  5
6CA
  8
DEFAULT
 62
   178
 10
121.01322
 20
141.1420497222222
 30
0.0
  0
VERTEX
  5
6CB
  8
DEFAULT
 62
   178
 10
120.9902894444444
 20
141.1879108333333
 30
0.0
  0
VERTEX
  5
6CC
  8
DEFAULT
 62
   178
 10
120.9599505555556
 20
141.2256580555556
 30
0.0
  0
VERTEX
  5
6CD
  8
DEFAULT
 62
   178
 10
120.9222033333333
 20
141.2637580555555
 30
0.0
  0
VERTEX
  5
6CE
  8
DEFAULT
 62
   178
 10
120.8841033333333
 20
141.2940969444444
 30
0.0
  0
VERTEX
  5
6CF
  8
DEFAULT
 62
   178
 10
120.8308338888889
 20
141.3170275
 30
0.0
  0
VERTEX
  5
6D0
  8
DEFAULT
 62
   178
 10
120.7853255555555
 20
141.3321969444444
 30
0.0
  0
VERTEX
  5
6D1
  8
DEFAULT
 62
   178
 10
120.7320561111111
 20
141.3321969444444
 30
0.0
  0
SEQEND
  5
6D2
  8
DEFAULT
 62
   178
  0
POLYLINE
  5
6D3
  8
DEFAULT
 62
   178
 66
     1
 10
0.0
 20
0.0
 30
0.0
  0
VERTEX
  5
6D4
  8
DEFAULT
 62
   178
 10
121.3397863888889
 20
116.9392363888889
 30
0.0
  0
VERTEX
  5
6D5
  8
DEFAULT
 62
   178
 10
121.3930558333333
 20
116.9466447222222
 30
0.0
  0
VERTEX
  5
6D6
  8
DEFAULT
 62
   178
 10
121.4459725
 20
116.9544058333333
 30
0.0
  0
VERTEX
  5
6D7
  8
DEFAULT
 62
   178
 10
121.4918336111111
 20
116.9769836111111
 30
0.0
  0
VERTEX
  5
6D8
  8
DEFAULT
 62
   178
 10
121.5295808333333
 20
117.0073225
 30
0.0
  0
VERTEX
  5
6D9
  8
DEFAULT
 62
   178
 10
121.5676808333333
 20
117.0454225
 30
0.0
  0
VERTEX
  5
6DA
  8
DEFAULT
 62
   178
 10
121.5980197222222
 20
117.0912836111111
 30
0.0
  0
VERTEX
  5
6DB
  8
DEFAULT
 62
   178
 10
121.6205975
 20
117.1364391666667
 30
0.0
  0
VERTEX
  5
6DC
  8
DEFAULT
 62
   178
 10
121.6361197222222
 20
117.1819475
 30
0.0
  0
VERTEX
  5
6DD
  8
DEFAULT
 62
   178
 10
121.6361197222222
 20
117.2352169444444
 30
0.0
  0
SEQEND
  5
6DE
  8
DEFAULT
 62
   178
  0
POLYLINE
  5
6DF
  8
DEFAULT
 62
   178
 66
     1
 10
0.0
 20
0.0
 30
0.0
  0
VERTEX
  5
6E0
  8
DEFAULT
 62
   178
 10
121.3853652777778
 20
111.4938997222222
 30
0.0
  0
VERTEX
  5
6E1
  8
DEFAULT
 62
   178
 10
121.4382819444444
 20
111.5016608333333
 30
0.0
  0
VERTEX
  5
6E2
  8
DEFAULT
 62
   178
 10
121.4915513888889
 20
111.5090691666667
 30
0.0
  0
VERTEX
  5
6E3
  8
DEFAULT
 62
   178
 10
121.5374125
 20
111.5319997222222
 30
0.0
  0
VERTEX
  5
6E4
  8
DEFAULT
 62
   178
 10
121.5829208333333
 20
111.5623386111111
 30
0.0
  0
VERTEX
  5
6E5
  8
DEFAULT
 62
   178
 10
121.6132597222222
 20
111.6000858333333
 30
0.0
  0
VERTEX
  5
6E6
  8
DEFAULT
 62
   178
 10
121.6435986111111
 20
111.6459469444444
 30
0.0
  0
VERTEX
  5
6E7
  8
DEFAULT
 62
   178
 10
121.6661763888889
 20
111.6914552777778
 30
0.0
  0
VERTEX
  5
6E8
  8
DEFAULT
 62
   178
 10
121.6816986111111
 20
111.7369636111111
 30
0.0
  0
VERTEX
  5
6E9
  8
DEFAULT
 62
   178
 10
121.6891069444444
 20
111.7902330555555
 30
0.0
  0
SEQEND
  5
6EA
  8
DEFAULT
 62
   178
  0
POLYLINE
  5
6EB
  8
DEFAULT
 62
   178
 66
     1
 10
0.0
 20
0.0
 30
0.0
  0
VERTEX
  5
6EC
  8
DEFAULT
 62
   178
 10
121.4461136111111
 20
103.960295
 30
0.0
  0
VERTEX
  5
6ED
  8
DEFAULT
 62
   178
 10
121.4993830555556
 20
103.960295
 30
0.0
  0
VERTEX
  5
6EE
  8
DEFAULT
 62
   178
 10
121.5522997222222
 20
103.9754644444444
 30
0.0
  0
VERTEX
  5
6EF
  8
DEFAULT
 62
   178
 10
121.5981608333333
 20
103.998395
 30
0.0
  0
VERTEX
  5
6F0
  8
DEFAULT
 62
   178
 10
121.6436691666667
 20
104.0287338888889
 30
0.0
  0
VERTEX
  5
6F1
  8
DEFAULT
 62
   178
 10
121.6740080555556
 20
104.0668338888889
 30
0.0
  0
VERTEX
  5
6F2
  8
DEFAULT
 62
   178
 10
121.7043469444445
 20
104.1045811111111
 30
0.0
  0
VERTEX
  5
6F3
  8
DEFAULT
 62
   178
 10
121.7269247222222
 20
104.1500894444444
 30
0.0
  0
VERTEX
  5
6F4
  8
DEFAULT
 62
   178
 10
121.7424469444444
 20
104.2033588888889
 30
0.0
  0
VERTEX
  5
6F5
  8
DEFAULT
 62
   178
 10
121.7498552777778
 20
104.2566283333333
 30
0.0
  0
SEQEND
  5
6F6
  8
DEFAULT
 62
   178
  0
POLYLINE
  5
6F7
  8
DEFAULT
 62
   178
 66
     1
 10
0.0
 20
0.0
 30
0.0
  0
VERTEX
  5
6F8
  8
DEFAULT
 62
   178
 10
121.5902938888889
 20
103.5503319444444
 30
0.0
  0
VERTEX
  5
6F9
  8
DEFAULT
 62
   178
 10
121.6435633333333
 20
103.5580930555555
 30
0.0
  0
VERTEX
  5
6FA
  8
DEFAULT
 62
   178
 10
121.6890716666666
 20
103.5729097222222
 30
0.0
  0
VERTEX
  5
6FB
  8
DEFAULT
 62
   178
 10
121.73458
 20
103.5958402777778
 30
0.0
  0
VERTEX
  5
6FC
  8
DEFAULT
 62
   178
 10
121.7800883333333
 20
103.6261791666666
 30
0.0
  0
VERTEX
  5
6FD
  8
DEFAULT
 62
   178
 10
121.8104272222222
 20
103.6642791666667
 30
0.0
  0
VERTEX
  5
6FE
  8
DEFAULT
 62
   178
 10
121.8411188888889
 20
103.7097875
 30
0.0
  0
VERTEX
  5
6FF
  8
DEFAULT
 62
   178
 10
121.8636966666666
 20
103.7552958333333
 30
0.0
  0
VERTEX
  5
700
  8
DEFAULT
 62
   178
 10
121.8788661111111
 20
103.8008041666667
 30
0.0
  0
VERTEX
  5
701
  8
DEFAULT
 62
   178
 10
121.8788661111111
 20
103.8540736111111
 30
0.0
  0
SEQEND
  5
702
  8
DEFAULT
 62
   178
  0
LINE
  5
703
  8
DEFAULT
 62
   178
 10
121.5828502777777
 20
103.5580225
 30
0.0
 11
121.5902586111111
 21
103.5502613888889
 31
0.0
  0
POLYLINE
  5
704
  8
DEFAULT
 62
   178
 66
     1
 10
0.0
 20
0.0
 30
0.0
  0
VERTEX
  5
705
  8
DEFAULT
 62
   178
 10
90.92438
 20
103.8541088888889
 30
0.0
  0
VERTEX
  5
706
  8
DEFAULT
 62
   178
 10
90.92438
 20
103.8008394444444
 30
0.0
  0
VERTEX
  5
707
  8
DEFAULT
 62
   178
 10
90.93954944444444
 20
103.7553311111111
 30
0.0
  0
VERTEX
  5
708
  8
DEFAULT
 62
   178
 10
90.95507166666665
 20
103.7098227777778
 30
0.0
  0
VERTEX
  5
709
  8
DEFAULT
 62
   178
 10
90.98505777777778
 20
103.6643144444444
 30
0.0
  0
VERTEX
  5
70A
  8
DEFAULT
 62
   178
 10
91.02315777777777
 20
103.6262144444444
 30
0.0
  0
VERTEX
  5
70B
  8
DEFAULT
 62
   178
 10
91.06125777777777
 20
103.5958755555555
 30
0.0
  0
VERTEX
  5
70C
  8
DEFAULT
 62
   178
 10
91.1067661111111
 20
103.572945
 30
0.0
  0
VERTEX
  5
70D
  8
DEFAULT
 62
   178
 10
91.16003555555555
 20
103.5581283333333
 30
0.0
  0
VERTEX
  5
70E
  8
DEFAULT
 62
   178
 10
91.2055438888889
 20
103.5503672222222
 30
0.0
  0
SEQEND
  5
70F
  8
DEFAULT
 62
   178
  0
POLYLINE
  5
710
  8
DEFAULT
 62
   178
 66
     1
 10
0.0
 20
0.0
 30
0.0
  0
VERTEX
  5
711
  8
DEFAULT
 62
   178
 10
91.05356722222221
 20
104.2565225
 30
0.0
  0
VERTEX
  5
712
  8
DEFAULT
 62
   178
 10
91.06132833333332
 20
104.2032530555556
 30
0.0
  0
VERTEX
  5
713
  8
DEFAULT
 62
   178
 10
91.06873666666667
 20
104.1503363888889
 30
0.0
  0
VERTEX
  5
714
  8
DEFAULT
 62
   178
 10
91.09166722222221
 20
104.1044752777778
 30
0.0
  0
VERTEX
  5
715
  8
DEFAULT
 62
   178
 10
91.1220061111111
 20
104.0667280555555
 30
0.0
  0
VERTEX
  5
716
  8
DEFAULT
 62
   178
 10
91.15975333333333
 20
104.0286280555555
 30
0.0
  0
VERTEX
  5
717
  8
DEFAULT
 62
   178
 10
91.20561444444444
 20
103.9982891666667
 30
0.0
  0
VERTEX
  5
718
  8
DEFAULT
 62
   178
 10
91.25112277777777
 20
103.9757113888889
 30
0.0
  0
VERTEX
  5
719
  8
DEFAULT
 62
   178
 10
91.29663111111111
 20
103.9601891666667
 30
0.0
  0
VERTEX
  5
71A
  8
DEFAULT
 62
   178
 10
91.34990055555554
 20
103.9601891666667
 30
0.0
  0
SEQEND
  5
71B
  8
DEFAULT
 62
   178
  0
LINE
  5
71C
  8
DEFAULT
 62
   178
 10
91.20543805555553
 20
103.5503319444444
 30
0.0
 11
91.22060749999997
 21
103.5580930555555
 31
0.0
  0
POLYLINE
  5
71D
  8
DEFAULT
 62
   178
 66
     1
 10
0.0
 20
0.0
 30
0.0
  0
VERTEX
  5
71E
  8
DEFAULT
 62
   178
 10
111.5305886111111
 20
153.0950427777778
 30
0.0
  0
VERTEX
  5
71F
  8
DEFAULT
 62
   178
 10
111.4748497222222
 20
153.224865
 30
0.0
  0
VERTEX
  5
720
  8
DEFAULT
 62
   178
 10
111.4790830555555
 20
153.2167511111111
 30
0.0
  0
VERTEX
  5
721
  8
DEFAULT
 62
   178
 10
111.5013080555555
 20
153.1715955555555
 30
0.0
  0
VERTEX
  5
722
  8
DEFAULT
 62
   178
 10
111.5267080555555
 20
153.0953955555555
 30
0.0
  0
VERTEX
  5
723
  8
DEFAULT
 62
   178
 10
111.4748497222222
 20
153.224865
 30
0.0
  0
VERTEX
  5
724
  8
DEFAULT
 62
   178
 10
111.4138191666667
 20
153.3158816666666
 30
0.0
  0
VERTEX
  5
725
  8
DEFAULT
 62
   178
 10
111.3531413888889
 20
153.4146594444444
 30
0.0
  0
VERTEX
  5
726
  8
DEFAULT
 62
   178
 10
111.2772941666666
 20
153.4982677777778
 30
0.0
  0
VERTEX
  5
727
  8
DEFAULT
 62
   178
 10
111.2010941666666
 20
153.574115
 30
0.0
  0
VERTEX
  5
728
  8
DEFAULT
 62
   178
 10
111.1104302777778
 20
153.650315
 30
0.0
  0
VERTEX
  5
729
  8
DEFAULT
 62
   178
 10
111.0190608333333
 20
153.7184011111111
 30
0.0
  0
VERTEX
  5
72A
  8
DEFAULT
 62
   178
 10
110.8215052777778
 20
153.82494
 30
0.0
  0
VERTEX
  5
72B
  8
DEFAULT
 62
   178
 10
110.7153191666667
 20
153.8626872222222
 30
0.0
  0
VERTEX
  5
72C
  8
DEFAULT
 62
   178
 10
110.6091330555555
 20
153.9007872222222
 30
0.0
  0
VERTEX
  5
72D
  8
DEFAULT
 62
   178
 10
110.4948330555555
 20
153.923365
 30
0.0
  0
VERTEX
  5
72E
  8
DEFAULT
 62
   178
 10
110.3812386111111
 20
153.9388872222222
 30
0.0
  0
VERTEX
  5
72F
  8
DEFAULT
 62
   178
 10
110.1607525
 20
153.9388872222222
 30
0.0
  0
VERTEX
  5
730
  8
DEFAULT
 62
   178
 10
110.0471580555556
 20
153.923365
 30
0.0
  0
VERTEX
  5
731
  8
DEFAULT
 62
   178
 10
109.9328580555555
 20
153.9007872222222
 30
0.0
  0
VERTEX
  5
732
  8
DEFAULT
 62
   178
 10
109.8266719444444
 20
153.8626872222222
 30
0.0
  0
VERTEX
  5
733
  8
DEFAULT
 62
   178
 10
109.7204858333333
 20
153.82494
 30
0.0
  0
VERTEX
  5
734
  8
DEFAULT
 62
   178
 10
109.5229302777778
 20
153.7184011111111
 30
0.0
  0
VERTEX
  5
735
  8
DEFAULT
 62
   178
 10
109.4319136111111
 20
153.650315
 30
0.0
  0
VERTEX
  5
736
  8
DEFAULT
 62
   178
 10
109.3483052777778
 20
153.574115
 30
0.0
  0
VERTEX
  5
737
  8
DEFAULT
 62
   178
 10
109.2646969444444
 20
153.4982677777778
 30
0.0
  0
VERTEX
  5
738
  8
DEFAULT
 62
   178
 10
109.1888497222222
 20
153.4146594444444
 30
0.0
  0
VERTEX
  5
739
  8
DEFAULT
 62
   178
 10
109.1281719444444
 20
153.3158816666666
 30
0.0
  0
VERTEX
  5
73A
  8
DEFAULT
 62
   178
 10
109.0671413888889
 20
153.224865
 30
0.0
  0
VERTEX
  5
73B
  8
DEFAULT
 62
   178
 10
109.0216330555555
 20
153.1183261111111
 30
0.0
  0
VERTEX
  5
73C
  8
DEFAULT
 62
   178
 10
108.9761247222222
 20
153.01214
 30
0.0
  0
VERTEX
  5
73D
  8
DEFAULT
 62
   178
 10
108.9457858333333
 20
152.9059538888889
 30
0.0
  0
VERTEX
  5
73E
  8
DEFAULT
 62
   178
 10
108.9228552777778
 20
152.799415
 30
0.0
  0
VERTEX
  5
73F
  8
DEFAULT
 62
   178
 10
108.9076858333333
 20
152.6854677777777
 30
0.0
  0
VERTEX
  5
740
  8
DEFAULT
 62
   178
 10
108.9002775
 20
152.5718733333333
 30
0.0
  0
SEQEND
  5
741
  8
DEFAULT
 62
   178
  0
POLYLINE
  5
742
  8
DEFAULT
 62
   178
 66
     1
 10
0.0
 20
0.0
 30
0.0
  0
VERTEX
  5
743
  8
DEFAULT
 62
   178
 10
118.8564425
 20
152.5716969444444
 30
0.0
  0
VERTEX
  5
744
  8
DEFAULT
 62
   178
 10
118.8486813888889
 20
152.6856441666666
 30
0.0
  0
VERTEX
  5
745
  8
DEFAULT
 62
   178
 10
118.8412730555555
 20
152.7918302777778
 30
0.0
  0
VERTEX
  5
746
  8
DEFAULT
 62
   178
 10
118.8105813888889
 20
152.9057775
 30
0.0
  0
VERTEX
  5
747
  8
DEFAULT
 62
   178
 10
118.7805952777778
 20
153.0119636111111
 30
0.0
  0
VERTEX
  5
748
  8
DEFAULT
 62
   178
 10
118.7347341666667
 20
153.1185025
 30
0.0
  0
VERTEX
  5
749
  8
DEFAULT
 62
   178
 10
118.6818175
 20
153.2172802777777
 30
0.0
  0
VERTEX
  5
74A
  8
DEFAULT
 62
   178
 10
118.6211397222222
 20
153.3160580555555
 30
0.0
  0
VERTEX
  5
74B
  8
DEFAULT
 62
   178
 10
118.5527008333333
 20
153.4070747222222
 30
0.0
  0
VERTEX
  5
74C
  8
DEFAULT
 62
   178
 10
118.4765008333333
 20
153.4906830555555
 30
0.0
  0
VERTEX
  5
74D
  8
DEFAULT
 62
   178
 10
118.3932452777778
 20
153.5665302777778
 30
0.0
  0
VERTEX
  5
74E
  8
DEFAULT
 62
   178
 10
118.3022286111111
 20
153.6349691666667
 30
0.0
  0
VERTEX
  5
74F
  8
DEFAULT
 62
   178
 10
118.2108591666667
 20
153.6956469444444
 30
0.0
  0
VERTEX
  5
750
  8
DEFAULT
 62
   178
 10
118.1046730555556
 20
153.7489163888889
 30
0.0
  0
VERTEX
  5
751
  8
DEFAULT
 62
   178
 10
118.0058952777778
 20
153.7870163888889
 30
0.0
  0
VERTEX
  5
752
  8
DEFAULT
 62
   178
 10
117.8997091666667
 20
153.8247636111111
 30
0.0
  0
VERTEX
  5
753
  8
DEFAULT
 62
   178
 10
117.7857619444444
 20
153.8473413888889
 30
0.0
  0
VERTEX
  5
754
  8
DEFAULT
 62
   178
 10
117.6718147222222
 20
153.8628636111111
 30
0.0
  0
VERTEX
  5
755
  8
DEFAULT
 62
   178
 10
117.5578675
 20
153.8702719444444
 30
0.0
  0
VERTEX
  5
756
  8
DEFAULT
 62
   178
 10
117.4439202777778
 20
153.8628636111111
 30
0.0
  0
VERTEX
  5
757
  8
DEFAULT
 62
   178
 10
117.3377341666667
 20
153.8473413888889
 30
0.0
  0
VERTEX
  5
758
  8
DEFAULT
 62
   178
 10
117.2237869444444
 20
153.8247636111111
 30
0.0
  0
VERTEX
  5
759
  8
DEFAULT
 62
   178
 10
117.1172480555555
 20
153.7870163888889
 30
0.0
  0
VERTEX
  5
75A
  8
DEFAULT
 62
   178
 10
117.0110619444444
 20
153.7489163888889
 30
0.0
  0
VERTEX
  5
75B
  8
DEFAULT
 62
   178
 10
116.9122841666667
 20
153.6956469444444
 30
0.0
  0
VERTEX
  5
75C
  8
DEFAULT
 62
   178
 10
116.8135063888889
 20
153.6349691666667
 30
0.0
  0
VERTEX
  5
75D
  8
DEFAULT
 62
   178
 10
116.7298980555556
 20
153.5665302777778
 30
0.0
  0
VERTEX
  5
75E
  8
DEFAULT
 62
   178
 10
116.6466425
 20
153.4906830555555
 30
0.0
  0
VERTEX
  5
75F
  8
DEFAULT
 62
   178
 10
116.5626813888889
 20
153.4070747222222
 30
0.0
  0
VERTEX
  5
760
  8
DEFAULT
 62
   178
 10
116.4945952777778
 20
153.3160580555555
 30
0.0
  0
VERTEX
  5
761
  8
DEFAULT
 62
   178
 10
116.4339175
 20
153.2172802777777
 30
0.0
  0
VERTEX
  5
762
  8
DEFAULT
 62
   178
 10
116.3884091666667
 20
153.1185025
 30
0.0
  0
VERTEX
  5
763
  8
DEFAULT
 62
   178
 10
116.3429008333333
 20
153.0119636111111
 30
0.0
  0
VERTEX
  5
764
  8
DEFAULT
 62
   178
 10
116.3048008333333
 20
152.9057775
 30
0.0
  0
VERTEX
  5
765
  8
DEFAULT
 62
   178
 10
116.2818702777778
 20
152.7918302777778
 30
0.0
  0
VERTEX
  5
766
  8
DEFAULT
 62
   178
 10
116.2667008333333
 20
152.6856441666666
 30
0.0
  0
VERTEX
  5
767
  8
DEFAULT
 62
   178
 10
116.2667008333333
 20
152.5716969444444
 30
0.0
  0
SEQEND
  5
768
  8
DEFAULT
 62
   178
  0
POLYLINE
  5
769
  8
DEFAULT
 62
   178
 66
     1
 10
0.0
 20
0.0
 30
0.0
  0
VERTEX
  5
76A
  8
DEFAULT
 62
   178
 10
116.2667008333333
 20
152.5716969444444
 30
0.0
  0
VERTEX
  5
76B
  8
DEFAULT
 62
   178
 10
116.2667008333333
 20
152.4577497222222
 30
0.0
  0
VERTEX
  5
76C
  8
DEFAULT
 62
   178
 10
116.2818702777778
 20
152.3438025
 30
0.0
  0
VERTEX
  5
76D
  8
DEFAULT
 62
   178
 10
116.3048008333333
 20
152.2376163888889
 30
0.0
  0
VERTEX
  5
76E
  8
DEFAULT
 62
   178
 10
116.3429008333333
 20
152.1236691666666
 30
0.0
  0
VERTEX
  5
76F
  8
DEFAULT
 62
   178
 10
116.3884091666667
 20
152.0248913888889
 30
0.0
  0
VERTEX
  5
770
  8
DEFAULT
 62
   178
 10
116.4339175
 20
151.9187052777777
 30
0.0
  0
VERTEX
  5
771
  8
DEFAULT
 62
   178
 10
116.4945952777778
 20
151.8273358333333
 30
0.0
  0
VERTEX
  5
772
  8
DEFAULT
 62
   178
 10
116.5626813888889
 20
151.7363191666666
 30
0.0
  0
VERTEX
  5
773
  8
DEFAULT
 62
   178
 10
116.6466425
 20
151.6527108333333
 30
0.0
  0
VERTEX
  5
774
  8
DEFAULT
 62
   178
 10
116.7298980555556
 20
151.5768636111111
 30
0.0
  0
VERTEX
  5
775
  8
DEFAULT
 62
   178
 10
116.8135063888889
 20
151.5084247222222
 30
0.0
  0
VERTEX
  5
776
  8
DEFAULT
 62
   178
 10
116.9122841666667
 20
151.4477469444444
 30
0.0
  0
VERTEX
  5
777
  8
DEFAULT
 62
   178
 10
117.0110619444444
 20
151.3944775
 30
0.0
  0
VERTEX
  5
778
  8
DEFAULT
 62
   178
 10
117.1172480555555
 20
151.3489691666666
 30
0.0
  0
VERTEX
  5
779
  8
DEFAULT
 62
   178
 10
117.2237869444444
 20
151.3186302777777
 30
0.0
  0
VERTEX
  5
77A
  8
DEFAULT
 62
   178
 10
117.3377341666667
 20
151.2882913888889
 30
0.0
  0
VERTEX
  5
77B
  8
DEFAULT
 62
   178
 10
117.4439202777778
 20
151.2805302777778
 30
0.0
  0
VERTEX
  5
77C
  8
DEFAULT
 62
   178
 10
117.5578675
 20
151.2731219444444
 30
0.0
  0
VERTEX
  5
77D
  8
DEFAULT
 62
   178
 10
117.6718147222222
 20
151.2805302777778
 30
0.0
  0
VERTEX
  5
77E
  8
DEFAULT
 62
   178
 10
117.7857619444444
 20
151.2882913888889
 30
0.0
  0
VERTEX
  5
77F
  8
DEFAULT
 62
   178
 10
117.8997091666667
 20
151.3186302777777
 30
0.0
  0
VERTEX
  5
780
  8
DEFAULT
 62
   178
 10
118.0058952777778
 20
151.3489691666666
 30
0.0
  0
VERTEX
  5
781
  8
DEFAULT
 62
   178
 10
118.1046730555555
 20
151.3944775
 30
0.0
  0
VERTEX
  5
782
  8
DEFAULT
 62
   178
 10
118.2108591666667
 20
151.4477469444444
 30
0.0
  0
VERTEX
  5
783
  8
DEFAULT
 62
   178
 10
118.3022286111111
 20
151.5084247222222
 30
0.0
  0
VERTEX
  5
784
  8
DEFAULT
 62
   178
 10
118.3932452777778
 20
151.5768636111111
 30
0.0
  0
VERTEX
  5
785
  8
DEFAULT
 62
   178
 10
118.4765008333333
 20
151.6527108333333
 30
0.0
  0
VERTEX
  5
786
  8
DEFAULT
 62
   178
 10
118.5527008333333
 20
151.7363191666666
 30
0.0
  0
VERTEX
  5
787
  8
DEFAULT
 62
   178
 10
118.6211397222222
 20
151.8273358333333
 30
0.0
  0
VERTEX
  5
788
  8
DEFAULT
 62
   178
 10
118.6818175
 20
151.9187052777777
 30
0.0
  0
VERTEX
  5
789
  8
DEFAULT
 62
   178
 10
118.7347341666667
 20
152.0248913888889
 30
0.0
  0
VERTEX
  5
78A
  8
DEFAULT
 62
   178
 10
118.7805952777778
 20
152.1236691666666
 30
0.0
  0
VERTEX
  5
78B
  8
DEFAULT
 62
   178
 10
118.8105813888889
 20
152.2376163888889
 30
0.0
  0
VERTEX
  5
78C
  8
DEFAULT
 62
   178
 10
118.8412730555555
 20
152.3438025
 30
0.0
  0
VERTEX
  5
78D
  8
DEFAULT
 62
   178
 10
118.8486813888889
 20
152.4577497222222
 30
0.0
  0
VERTEX
  5
78E
  8
DEFAULT
 62
   178
 10
118.8564425
 20
152.5716969444444
 30
0.0
  0
SEQEND
  5
78F
  8
DEFAULT
 62
   178
  0
POLYLINE
  5
790
  8
DEFAULT
 62
   178
 66
     1
 10
0.0
 20
0.0
 30
0.0
  0
VERTEX
  5
791
  8
DEFAULT
 62
   178
 10
114.6110441666667
 20
152.5715558333333
 30
0.0
  0
VERTEX
  5
792
  8
DEFAULT
 62
   178
 10
114.6110441666667
 20
152.6855030555556
 30
0.0
  0
VERTEX
  5
793
  8
DEFAULT
 62
   178
 10
114.5958747222222
 20
152.7994502777778
 30
0.0
  0
VERTEX
  5
794
  8
DEFAULT
 62
   178
 10
114.5729441666667
 20
152.9056363888889
 30
0.0
  0
VERTEX
  5
795
  8
DEFAULT
 62
   178
 10
114.5426052777778
 20
153.0118225
 30
0.0
  0
VERTEX
  5
796
  8
DEFAULT
 62
   178
 10
114.4970969444445
 20
153.1183613888889
 30
0.0
  0
VERTEX
  5
797
  8
DEFAULT
 62
   178
 10
114.4515886111111
 20
153.2245475
 30
0.0
  0
VERTEX
  5
798
  8
DEFAULT
 62
   178
 10
114.3909108333333
 20
153.3159169444444
 30
0.0
  0
VERTEX
  5
799
  8
DEFAULT
 62
   178
 10
114.3224719444444
 20
153.4146947222222
 30
0.0
  0
VERTEX
  5
79A
  8
DEFAULT
 62
   178
 10
114.2540330555556
 20
153.4979502777778
 30
0.0
  0
VERTEX
  5
79B
  8
DEFAULT
 62
   178
 10
114.1704247222222
 20
153.5741502777778
 30
0.0
  0
VERTEX
  5
79C
  8
DEFAULT
 62
   178
 10
114.0871691666667
 20
153.6499975
 30
0.0
  0
VERTEX
  5
79D
  8
DEFAULT
 62
   178
 10
113.9957997222222
 20
153.7184363888889
 30
0.0
  0
VERTEX
  5
79E
  8
DEFAULT
 62
   178
 10
113.8973747222222
 20
153.7713530555556
 30
0.0
  0
VERTEX
  5
79F
  8
DEFAULT
 62
   178
 10
113.7985969444444
 20
153.8246225
 30
0.0
  0
VERTEX
  5
7A0
  8
DEFAULT
 62
   178
 10
113.6920580555555
 20
153.8627225
 30
0.0
  0
VERTEX
  5
7A1
  8
DEFAULT
 62
   178
 10
113.5781108333333
 20
153.9004697222222
 30
0.0
  0
VERTEX
  5
7A2
  8
DEFAULT
 62
   178
 10
113.4719247222222
 20
153.9234002777778
 30
0.0
  0
VERTEX
  5
7A3
  8
DEFAULT
 62
   178
 10
113.3579775
 20
153.9385697222222
 30
0.0
  0
VERTEX
  5
7A4
  8
DEFAULT
 62
   178
 10
113.1300830555556
 20
153.9385697222222
 30
0.0
  0
VERTEX
  5
7A5
  8
DEFAULT
 62
   178
 10
113.0238969444444
 20
153.9234002777778
 30
0.0
  0
VERTEX
  5
7A6
  8
DEFAULT
 62
   178
 10
112.9099497222222
 20
153.9004697222222
 30
0.0
  0
VERTEX
  5
7A7
  8
DEFAULT
 62
   178
 10
112.8037636111111
 20
153.8627225
 30
0.0
  0
VERTEX
  5
7A8
  8
DEFAULT
 62
   178
 10
112.6972247222222
 20
153.8246225
 30
0.0
  0
VERTEX
  5
7A9
  8
DEFAULT
 62
   178
 10
112.5984469444444
 20
153.7713530555556
 30
0.0
  0
VERTEX
  5
7AA
  8
DEFAULT
 62
   178
 10
112.4996691666667
 20
153.7184363888889
 30
0.0
  0
VERTEX
  5
7AB
  8
DEFAULT
 62
   178
 10
112.4086525
 20
153.6499975
 30
0.0
  0
VERTEX
  5
7AC
  8
DEFAULT
 62
   178
 10
112.3176358333333
 20
153.5741502777778
 30
0.0
  0
VERTEX
  5
7AD
  8
DEFAULT
 62
   178
 10
112.2417886111111
 20
153.4979502777778
 30
0.0
  0
VERTEX
  5
7AE
  8
DEFAULT
 62
   178
 10
112.1655886111111
 20
153.4146947222222
 30
0.0
  0
VERTEX
  5
7AF
  8
DEFAULT
 62
   178
 10
112.0971497222222
 20
153.3159169444444
 30
0.0
  0
VERTEX
  5
7B0
  8
DEFAULT
 62
   178
 10
112.0442330555556
 20
153.2245475
 30
0.0
  0
VERTEX
  5
7B1
  8
DEFAULT
 62
   178
 10
111.9909636111111
 20
153.1183613888889
 30
0.0
  0
VERTEX
  5
7B2
  8
DEFAULT
 62
   178
 10
111.9563913888889
 20
153.1155391666667
 30
0.0
  0
VERTEX
  5
7B3
  8
DEFAULT
 62
   178
 10
111.4931941666667
 20
153.1155391666667
 30
0.0
  0
SEQEND
  5
7B4
  8
DEFAULT
 62
   178
  0
LINE
  5
7B5
  8
DEFAULT
 62
   178
 10
121.4461136111111
 20
104.2413883333333
 30
0.0
 11
121.7498552777778
 21
104.2565577777778
 31
0.0
  0
POLYLINE
  5
7B6
  8
DEFAULT
 62
   178
 66
     1
 10
0.0
 20
0.0
 30
0.0
  0
VERTEX
  5
7B7
  8
DEFAULT
 62
   178
 10
121.4461136111111
 20
111.2661111111111
 30
0.0
  0
VERTEX
  5
7B8
  8
DEFAULT
 62
   178
 10
121.4993830555556
 20
111.2735194444444
 30
0.0
  0
VERTEX
  5
7B9
  8
DEFAULT
 62
   178
 10
121.5600608333333
 20
111.2890416666666
 30
0.0
  0
VERTEX
  5
7BA
  8
DEFAULT
 62
   178
 10
121.5829913888889
 20
111.3038583333333
 30
0.0
  0
VERTEX
  5
7BB
  8
DEFAULT
 62
   178
 10
121.6055691666667
 20
111.3193805555555
 30
0.0
  0
VERTEX
  5
7BC
  8
DEFAULT
 62
   178
 10
121.6284997222222
 20
111.33455
 30
0.0
  0
VERTEX
  5
7BD
  8
DEFAULT
 62
   178
 10
121.6510775
 20
111.3497194444444
 30
0.0
  0
VERTEX
  5
7BE
  8
DEFAULT
 62
   178
 10
121.6740080555556
 20
111.3722972222222
 30
0.0
  0
VERTEX
  5
7BF
  8
DEFAULT
 62
   178
 10
121.7043469444445
 20
111.4181583333333
 30
0.0
  0
VERTEX
  5
7C0
  8
DEFAULT
 62
   178
 10
121.7195163888889
 20
111.4484972222222
 30
0.0
  0
VERTEX
  5
7C1
  8
DEFAULT
 62
   178
 10
121.7269247222222
 20
111.471075
 30
0.0
  0
VERTEX
  5
7C2
  8
DEFAULT
 62
   178
 10
121.7346858333333
 20
111.5017666666667
 30
0.0
  0
VERTEX
  5
7C3
  8
DEFAULT
 62
   178
 10
121.7424469444444
 20
111.5546833333333
 30
0.0
  0
SEQEND
  5
7C4
  8
DEFAULT
 62
   178
  0
LINE
  5
7C5
  8
DEFAULT
 62
   178
 10
121.3245111111111
 20
118.7920605555556
 30
0.0
 11
121.6282527777778
 21
118.9137688888889
 31
0.0
  0
POLYLINE
  5
7C6
  8
DEFAULT
 62
   178
 66
     1
 10
0.0
 20
0.0
 30
0.0
  0
VERTEX
  5
7C7
  8
DEFAULT
 62
   178
 10
121.3397863888889
 20
117.0301825
 30
0.0
  0
VERTEX
  5
7C8
  8
DEFAULT
 62
   178
 10
121.3930558333333
 20
117.0379436111111
 30
0.0
  0
VERTEX
  5
7C9
  8
DEFAULT
 62
   178
 10
121.4459725
 20
117.0453519444444
 30
0.0
  0
VERTEX
  5
7CA
  8
DEFAULT
 62
   178
 10
121.4918336111111
 20
117.0605213888889
 30
0.0
  0
VERTEX
  5
7CB
  8
DEFAULT
 62
   178
 10
121.5144113888889
 20
117.0682825
 30
0.0
  0
VERTEX
  5
7CC
  8
DEFAULT
 62
   178
 10
121.5295808333333
 20
117.0756908333333
 30
0.0
  0
VERTEX
  5
7CD
  8
DEFAULT
 62
   178
 10
121.5525113888889
 20
117.0912130555555
 30
0.0
  0
VERTEX
  5
7CE
  8
DEFAULT
 62
   178
 10
121.5676808333333
 20
117.1060297222222
 30
0.0
  0
VERTEX
  5
7CF
  8
DEFAULT
 62
   178
 10
121.5980197222222
 20
117.1441297222222
 30
0.0
  0
VERTEX
  5
7D0
  8
DEFAULT
 62
   178
 10
121.6205975
 20
117.1896380555555
 30
0.0
  0
VERTEX
  5
7D1
  8
DEFAULT
 62
   178
 10
121.6361197222222
 20
117.2354991666667
 30
0.0
  0
SEQEND
  5
7D2
  8
DEFAULT
 62
   178
  0
POLYLINE
  5
7D3
  8
DEFAULT
 62
   178
 66
     1
 10
0.0
 20
0.0
 30
0.0
  0
VERTEX
  5
7D4
  8
DEFAULT
 62
   178
 10
121.3853652777778
 20
116.7719491666667
 30
0.0
  0
VERTEX
  5
7D5
  8
DEFAULT
 62
   178
 10
121.4460430555556
 20
116.7797102777778
 30
0.0
  0
VERTEX
  5
7D6
  8
DEFAULT
 62
   178
 10
121.4993125
 20
116.7948797222222
 30
0.0
  0
VERTEX
  5
7D7
  8
DEFAULT
 62
   178
 10
121.5218902777778
 20
116.8022880555555
 30
0.0
  0
VERTEX
  5
7D8
  8
DEFAULT
 62
   178
 10
121.5525819444444
 20
116.8174575
 30
0.0
  0
VERTEX
  5
7D9
  8
DEFAULT
 62
   178
 10
121.5751597222222
 20
116.8326269444444
 30
0.0
  0
VERTEX
  5
7DA
  8
DEFAULT
 62
   178
 10
121.5903291666667
 20
116.8555575
 30
0.0
  0
VERTEX
  5
7DB
  8
DEFAULT
 62
   178
 10
121.6132597222222
 20
116.8707269444444
 30
0.0
  0
VERTEX
  5
7DC
  8
DEFAULT
 62
   178
 10
121.6284291666667
 20
116.8936575
 30
0.0
  0
VERTEX
  5
7DD
  8
DEFAULT
 62
   178
 10
121.6435986111111
 20
116.9162352777778
 30
0.0
  0
VERTEX
  5
7DE
  8
DEFAULT
 62
   178
 10
121.6587680555555
 20
116.9465741666667
 30
0.0
  0
VERTEX
  5
7DF
  8
DEFAULT
 62
   178
 10
121.6661763888889
 20
116.9695047222222
 30
0.0
  0
VERTEX
  5
7E0
  8
DEFAULT
 62
   178
 10
121.6739375
 20
116.9998436111111
 30
0.0
  0
VERTEX
  5
7E1
  8
DEFAULT
 62
   178
 10
121.6816986111111
 20
117.0531130555555
 30
0.0
  0
SEQEND
  5
7E2
  8
DEFAULT
 62
   178
  0
LINE
  5
7E3
  8
DEFAULT
 62
   178
 10
121.3853652777778
 20
111.7825777777778
 30
0.0
 11
121.6891069444444
 21
111.7899861111111
 31
0.0
  0
LINE
  5
7E4
  8
DEFAULT
 62
   178
 10
100.2957805555556
 20
150.4604277777778
 30
0.0
 11
100.2957805555556
 21
150.7567611111111
 31
0.0
  0
LINE
  5
7E5
  8
DEFAULT
 62
   178
 10
100.2957805555556
 20
151.5770047222222
 30
0.0
 11
100.2957805555556
 21
151.8729852777778
 31
0.0
  0
POLYLINE
  5
7E6
  8
DEFAULT
 62
   178
 66
     1
 10
0.0
 20
0.0
 30
0.0
  0
VERTEX
  5
7E7
  8
DEFAULT
 62
   178
 10
121.6359786111111
 20
143.1851269444444
 30
0.0
  0
VERTEX
  5
7E8
  8
DEFAULT
 62
   178
 10
121.6208091666666
 20
143.2383963888889
 30
0.0
  0
VERTEX
  5
7E9
  8
DEFAULT
 62
   178
 10
121.5978786111111
 20
143.2761436111111
 30
0.0
  0
VERTEX
  5
7EA
  8
DEFAULT
 62
   178
 10
121.5675397222222
 20
143.3142436111111
 30
0.0
  0
VERTEX
  5
7EB
  8
DEFAULT
 62
   178
 10
121.5523702777778
 20
143.3294130555555
 30
0.0
  0
VERTEX
  5
7EC
  8
DEFAULT
 62
   178
 10
121.5297925
 20
143.3445825
 30
0.0
  0
VERTEX
  5
7ED
  8
DEFAULT
 62
   178
 10
121.5142702777778
 20
143.3597519444444
 30
0.0
  0
VERTEX
  5
7EE
  8
DEFAULT
 62
   178
 10
121.4916925
 20
143.3675130555555
 30
0.0
  0
VERTEX
  5
7EF
  8
DEFAULT
 62
   178
 10
121.4461841666666
 20
143.3823297222222
 30
0.0
  0
VERTEX
  5
7F0
  8
DEFAULT
 62
   178
 10
121.3396452777778
 20
143.3978519444444
 30
0.0
  0
SEQEND
  5
7F1
  8
DEFAULT
 62
   178
  0
LINE
  5
7F2
  8
DEFAULT
 62
   178
 10
121.6283586111111
 20
141.5066808333333
 30
0.0
 11
121.3246169444444
 21
141.6357975
 31
0.0
  0
POLYLINE
  5
7F3
  8
DEFAULT
 62
   178
 66
     1
 10
0.0
 20
0.0
 30
0.0
  0
VERTEX
  5
7F4
  8
DEFAULT
 62
   178
 10
91.45605138888885
 20
143.3977813888888
 30
0.0
  0
VERTEX
  5
7F5
  8
DEFAULT
 62
   178
 10
91.41019027777774
 20
143.3903730555555
 30
0.0
  0
VERTEX
  5
7F6
  8
DEFAULT
 62
   178
 10
91.35727361111111
 20
143.3826119444444
 30
0.0
  0
VERTEX
  5
7F7
  8
DEFAULT
 62
   178
 10
91.31176527777777
 20
143.3674425
 30
0.0
  0
VERTEX
  5
7F8
  8
DEFAULT
 62
   178
 10
91.28883472222222
 20
143.3596813888889
 30
0.0
  0
VERTEX
  5
7F9
  8
DEFAULT
 62
   178
 10
91.26625694444444
 20
143.3445119444444
 30
0.0
  0
VERTEX
  5
7FA
  8
DEFAULT
 62
   178
 10
91.23591805555553
 20
143.3141730555555
 30
0.0
  0
VERTEX
  5
7FB
  8
DEFAULT
 62
   178
 10
91.20557916666667
 20
143.2760730555555
 30
0.0
  0
VERTEX
  5
7FC
  8
DEFAULT
 62
   178
 10
91.1826486111111
 20
143.2383258333333
 30
0.0
  0
VERTEX
  5
7FD
  8
DEFAULT
 62
   178
 10
91.15971805555556
 20
143.1850563888889
 30
0.0
  0
SEQEND
  5
7FE
  8
DEFAULT
 62
   178
  0
LINE
  5
7FF
  8
DEFAULT
 62
   178
 10
91.4712208333333
 20
141.6358680555555
 30
0.0
 11
91.17524027777777
 21
141.5067513888889
 31
0.0
  0
POLYLINE
  5
800
  8
DEFAULT
 62
   178
 66
     1
 10
0.0
 20
0.0
 30
0.0
  0
VERTEX
  5
801
  8
DEFAULT
 62
   178
 10
121.3853652777778
 20
143.6559794444445
 30
0.0
  0
VERTEX
  5
802
  8
DEFAULT
 62
   178
 10
121.4460430555556
 20
143.6485711111111
 30
0.0
  0
VERTEX
  5
803
  8
DEFAULT
 62
   178
 10
121.4993125
 20
143.6330488888889
 30
0.0
  0
VERTEX
  5
804
  8
DEFAULT
 62
   178
 10
121.5218902777778
 20
143.6178794444444
 30
0.0
  0
VERTEX
  5
805
  8
DEFAULT
 62
   178
 10
121.5525819444444
 20
143.6104711111111
 30
0.0
  0
VERTEX
  5
806
  8
DEFAULT
 62
   178
 10
121.5751597222222
 20
143.5875405555555
 30
0.0
  0
VERTEX
  5
807
  8
DEFAULT
 62
   178
 10
121.5903291666667
 20
143.5723711111111
 30
0.0
  0
VERTEX
  5
808
  8
DEFAULT
 62
   178
 10
121.6132597222222
 20
143.5497933333333
 30
0.0
  0
VERTEX
  5
809
  8
DEFAULT
 62
   178
 10
121.6435986111111
 20
143.5039322222222
 30
0.0
  0
VERTEX
  5
80A
  8
DEFAULT
 62
   178
 10
121.6587680555555
 20
143.4813544444444
 30
0.0
  0
VERTEX
  5
80B
  8
DEFAULT
 62
   178
 10
121.6661763888889
 20
143.4510155555555
 30
0.0
  0
VERTEX
  5
80C
  8
DEFAULT
 62
   178
 10
121.6739375
 20
143.428085
 30
0.0
  0
VERTEX
  5
80D
  8
DEFAULT
 62
   178
 10
121.6816986111111
 20
143.3674072222222
 30
0.0
  0
SEQEND
  5
80E
  8
DEFAULT
 62
   178
  0
LINE
  5
80F
  8
DEFAULT
 62
   178
 10
121.6891775
 20
148.6302166666667
 30
0.0
 11
121.3854358333333
 21
148.6453861111111
 31
0.0
  0
LINE
  5
810
  8
DEFAULT
 62
   178
 10
121.6206327777778
 20
156.3460663888889
 30
0.0
 11
121.6587327777778
 21
156.3767580555555
 31
0.0
  0
LINE
  5
811
  8
DEFAULT
 62
   178
 10
121.6586269444444
 20
156.1789908333333
 30
0.0
 11
121.4462547222222
 21
156.1789908333333
 31
0.0
  0
POLYLINE
  5
812
  8
DEFAULT
 62
   178
 66
     1
 10
0.0
 20
0.0
 30
0.0
  0
VERTEX
  5
813
  8
DEFAULT
 62
   178
 10
121.7423058333333
 20
148.8656958333333
 30
0.0
  0
VERTEX
  5
814
  8
DEFAULT
 62
   178
 10
121.7345447222222
 20
148.9263736111111
 30
0.0
  0
VERTEX
  5
815
  8
DEFAULT
 62
   178
 10
121.7271363888889
 20
148.9493041666666
 30
0.0
  0
VERTEX
  5
816
  8
DEFAULT
 62
   178
 10
121.7193752777778
 20
148.9796430555555
 30
0.0
  0
VERTEX
  5
817
  8
DEFAULT
 62
   178
 10
121.7042058333333
 20
149.0022208333333
 30
0.0
  0
VERTEX
  5
818
  8
DEFAULT
 62
   178
 10
121.6890363888889
 20
149.0251513888889
 30
0.0
  0
VERTEX
  5
819
  8
DEFAULT
 62
   178
 10
121.6738669444444
 20
149.0477291666666
 30
0.0
  0
VERTEX
  5
81A
  8
DEFAULT
 62
   178
 10
121.6512891666667
 20
149.0706597222222
 30
0.0
  0
VERTEX
  5
81B
  8
DEFAULT
 62
   178
 10
121.6361197222222
 20
149.0935902777778
 30
0.0
  0
VERTEX
  5
81C
  8
DEFAULT
 62
   178
 10
121.6054280555555
 20
149.1087597222222
 30
0.0
  0
VERTEX
  5
81D
  8
DEFAULT
 62
   178
 10
121.5828502777778
 20
149.1239291666667
 30
0.0
  0
VERTEX
  5
81E
  8
DEFAULT
 62
   178
 10
121.5599197222222
 20
149.1313375
 30
0.0
  0
VERTEX
  5
81F
  8
DEFAULT
 62
   178
 10
121.5066502777778
 20
149.1465069444444
 30
0.0
  0
VERTEX
  5
820
  8
DEFAULT
 62
   178
 10
121.4459725
 20
149.1542680555555
 30
0.0
  0
SEQEND
  5
821
  8
DEFAULT
 62
   178
  0
LINE
  5
822
  8
DEFAULT
 62
   178
 10
121.7498905555555
 20
156.1714061111111
 30
0.0
 11
121.6585211111111
 21
156.1788144444444
 31
0.0
  0
LINE
  5
823
  8
DEFAULT
 62
   178
 10
98.60230611111109
 20
156.1866813888889
 30
0.0
 11
98.8908783333333
 21
156.1789202777778
 31
0.0
  0
LINE
  5
824
  8
DEFAULT
 62
   178
 10
98.8756736111111
 20
155.5638169444444
 30
0.0
 11
98.27559861111108
 21
155.5564086111111
 31
0.0
  0
LINE
  5
825
  8
DEFAULT
 62
   178
 10
98.89094888888889
 20
156.4675983333333
 30
0.0
 11
98.60237666666667
 21
156.4750066666666
 31
0.0
  0
LINE
  5
826
  8
DEFAULT
 62
   178
 10
98.29863499999999
 20
156.1866813888889
 30
0.0
 11
98.60237666666666
 21
156.1866813888889
 31
0.0
  0
LINE
  5
827
  8
DEFAULT
 62
   178
 10
98.59472138888891
 20
156.589095
 30
0.0
 11
96.9165575
 21
156.589095
 31
0.0
  0
LINE
  5
828
  8
DEFAULT
 62
   178
 10
96.62008305555555
 20
156.1789908333334
 30
0.0
 11
97.21274972222223
 21
156.1867519444445
 31
0.0
  0
LINE
  5
829
  8
DEFAULT
 62
   178
 10
97.23536277777777
 20
155.5562322222222
 30
0.0
 11
96.64304888888888
 21
155.5636405555555
 31
0.0
  0
LINE
  5
82A
  8
DEFAULT
 62
   178
 10
98.27566916666669
 20
155.5182380555555
 30
0.0
 11
97.2353275
 21
155.5182380555555
 31
0.0
  0
LINE
  5
82B
  8
DEFAULT
 62
   178
 10
97.21260861111111
 20
156.3081427777778
 30
0.0
 11
98.30621972222222
 21
156.3081427777778
 31
0.0
  0
LINE
  5
82C
  8
DEFAULT
 62
   178
 10
96.9164163888889
 20
156.4751830555555
 30
0.0
 11
96.62008305555555
 21
156.4677747222222
 31
0.0
  0
LINE
  5
82D
  8
DEFAULT
 62
   178
 10
95.20766666666665
 20
156.589095
 30
0.0
 11
93.52950277777776
 21
156.589095
 31
0.0
  0
POLYLINE
  5
82E
  8
DEFAULT
 62
   178
 66
     1
 10
0.0
 20
0.0
 30
0.0
  0
VERTEX
  5
82F
  8
DEFAULT
 62
   178
 10
91.15985916666664
 20
117.2353227777778
 30
0.0
  0
VERTEX
  5
830
  8
DEFAULT
 62
   178
 10
91.18278972222218
 20
117.1894616666667
 30
0.0
  0
VERTEX
  5
831
  8
DEFAULT
 62
   178
 10
91.2053675
 20
117.1443061111111
 30
0.0
  0
VERTEX
  5
832
  8
DEFAULT
 62
   178
 10
91.23570638888886
 20
117.1062061111111
 30
0.0
  0
VERTEX
  5
833
  8
DEFAULT
 62
   178
 10
91.26604527777775
 20
117.0758672222222
 30
0.0
  0
VERTEX
  5
834
  8
DEFAULT
 62
   178
 10
91.28897583333331
 20
117.0681061111111
 30
0.0
  0
VERTEX
  5
835
  8
DEFAULT
 62
   178
 10
91.31190638888887
 20
117.0606977777778
 30
0.0
  0
VERTEX
  5
836
  8
DEFAULT
 62
   178
 10
91.3574147222222
 20
117.0455283333333
 30
0.0
  0
VERTEX
  5
837
  8
DEFAULT
 62
   178
 10
91.41033138888886
 20
117.0377672222222
 30
0.0
  0
VERTEX
  5
838
  8
DEFAULT
 62
   178
 10
91.45619249999997
 20
117.0300061111111
 30
0.0
  0
SEQEND
  5
839
  8
DEFAULT
 62
   178
  0
POLYLINE
  5
83A
  8
DEFAULT
 62
   178
 66
     1
 10
0.0
 20
0.0
 30
0.0
  0
VERTEX
  5
83B
  8
DEFAULT
 62
   178
 10
91.35730888888885
 20
111.2661111111111
 30
0.0
  0
VERTEX
  5
83C
  8
DEFAULT
 62
   178
 10
91.2966311111111
 20
111.2735194444444
 30
0.0
  0
VERTEX
  5
83D
  8
DEFAULT
 62
   178
 10
91.24336166666666
 20
111.2890416666666
 30
0.0
  0
VERTEX
  5
83E
  8
DEFAULT
 62
   178
 10
91.21302277777777
 20
111.3038583333333
 30
0.0
  0
VERTEX
  5
83F
  8
DEFAULT
 62
   178
 10
91.19009222222222
 20
111.3193805555555
 30
0.0
  0
VERTEX
  5
840
  8
DEFAULT
 62
   178
 10
91.16751444444444
 20
111.33455
 30
0.0
  0
VERTEX
  5
841
  8
DEFAULT
 62
   178
 10
91.14458388888887
 20
111.3497194444444
 30
0.0
  0
VERTEX
  5
842
  8
DEFAULT
 62
   178
 10
91.12941444444444
 20
111.3722972222222
 30
0.0
  0
VERTEX
  5
843
  8
DEFAULT
 62
   178
 10
91.10683666666667
 20
111.3952277777777
 30
0.0
  0
VERTEX
  5
844
  8
DEFAULT
 62
   178
 10
91.09166722222221
 20
111.4181583333333
 30
0.0
  0
VERTEX
  5
845
  8
DEFAULT
 62
   178
 10
91.0839061111111
 20
111.4484972222222
 30
0.0
  0
VERTEX
  5
846
  8
DEFAULT
 62
   178
 10
91.06873666666667
 20
111.471075
 30
0.0
  0
VERTEX
  5
847
  8
DEFAULT
 62
   178
 10
91.06873666666667
 20
111.5017666666667
 30
0.0
  0
VERTEX
  5
848
  8
DEFAULT
 62
   178
 10
91.05356722222221
 20
111.5546833333333
 30
0.0
  0
SEQEND
  5
849
  8
DEFAULT
 62
   178
  0
LINE
  5
84A
  8
DEFAULT
 62
   178
 10
91.114245
 20
111.7901625
 30
0.0
 11
91.41022555555554
 21
111.7827541666666
 31
0.0
  0
POLYLINE
  5
84B
  8
DEFAULT
 62
   178
 66
     1
 10
0.0
 20
0.0
 30
0.0
  0
VERTEX
  5
84C
  8
DEFAULT
 62
   178
 10
91.41805722222222
 20
116.7719491666667
 30
0.0
  0
VERTEX
  5
84D
  8
DEFAULT
 62
   178
 10
91.35737944444443
 20
116.7797102777778
 30
0.0
  0
VERTEX
  5
84E
  8
DEFAULT
 62
   178
 10
91.30411000000001
 20
116.7948797222222
 30
0.0
  0
VERTEX
  5
84F
  8
DEFAULT
 62
   178
 10
91.27377111111112
 20
116.8022880555555
 30
0.0
  0
VERTEX
  5
850
  8
DEFAULT
 62
   178
 10
91.25084055555556
 20
116.8174575
 30
0.0
  0
VERTEX
  5
851
  8
DEFAULT
 62
   178
 10
91.22826277777777
 20
116.8326269444444
 30
0.0
  0
VERTEX
  5
852
  8
DEFAULT
 62
   178
 10
91.19016277777777
 20
116.8707269444444
 30
0.0
  0
VERTEX
  5
853
  8
DEFAULT
 62
   178
 10
91.167585
 20
116.8936575
 30
0.0
  0
VERTEX
  5
854
  8
DEFAULT
 62
   178
 10
91.15206277777777
 20
116.9162352777778
 30
0.0
  0
VERTEX
  5
855
  8
DEFAULT
 62
   178
 10
91.14465444444446
 20
116.9465741666667
 30
0.0
  0
VERTEX
  5
856
  8
DEFAULT
 62
   178
 10
91.129485
 20
116.9695047222222
 30
0.0
  0
VERTEX
  5
857
  8
DEFAULT
 62
   178
 10
91.12207666666667
 20
116.9998436111111
 30
0.0
  0
VERTEX
  5
858
  8
DEFAULT
 62
   178
 10
91.11431555555556
 20
117.0531130555555
 30
0.0
  0
SEQEND
  5
859
  8
DEFAULT
 62
   178
  0
LINE
  5
85A
  8
DEFAULT
 62
   178
 10
91.05356722222224
 20
104.2565225
 30
0.0
 11
91.34990055555554
 21
104.2413530555555
 31
0.0
  0
LINE
  5
85B
  8
DEFAULT
 62
   178
 10
93.81786333333335
 20
156.3081427777778
 30
0.0
 11
94.91147444444445
 21
156.3081427777778
 31
0.0
  0
LINE
  5
85C
  8
DEFAULT
 62
   178
 10
93.84816694444446
 20
155.5562322222222
 30
0.0
 11
93.24844472222222
 21
155.5636405555555
 31
0.0
  0
LINE
  5
85D
  8
DEFAULT
 62
   178
 10
94.888685
 20
155.5182380555555
 30
0.0
 11
93.84834333333332
 21
155.5182380555555
 31
0.0
  0
LINE
  5
85E
  8
DEFAULT
 62
   178
 10
95.20766666666665
 20
156.1866813888889
 30
0.0
 11
95.50364722222223
 21
156.1789202777778
 31
0.0
  0
LINE
  5
85F
  8
DEFAULT
 62
   178
 10
93.82558916666669
 20
156.1866813888889
 30
0.0
 11
93.23327527777779
 21
156.1789202777778
 31
0.0
  0
LINE
  5
860
  8
DEFAULT
 62
   178
 10
94.91154499999999
 20
156.1866813888889
 30
0.0
 11
95.20752555555553
 21
156.1866813888889
 31
0.0
  0
LINE
  5
861
  8
DEFAULT
 62
   178
 10
95.48099888888889
 20
155.5638169444444
 30
0.0
 11
94.88868500000001
 21
155.5638169444444
 31
0.0
  0
LINE
  5
862
  8
DEFAULT
 62
   178
 10
95.50378833333333
 20
156.4675983333333
 30
0.0
 11
95.20780777777777
 21
156.4750066666666
 31
0.0
  0
LINE
  5
863
  8
DEFAULT
 62
   178
 10
93.52936166666663
 20
156.4751830555555
 30
0.0
 11
93.23302833333332
 21
156.4677747222222
 31
0.0
  0
LINE
  5
864
  8
DEFAULT
 62
   178
 10
91.18271916666669
 20
156.3460663888889
 30
0.0
 11
91.14461916666666
 21
156.3767580555555
 31
0.0
  0
LINE
  5
865
  8
DEFAULT
 62
   178
 10
91.14472499999997
 20
156.1789908333333
 30
0.0
 11
91.05370833333333
 21
156.1715825
 31
0.0
  0
POLYLINE
  5
866
  8
DEFAULT
 62
   178
 66
     1
 10
0.0
 20
0.0
 30
0.0
  0
VERTEX
  5
867
  8
DEFAULT
 62
   178
 10
91.35730888888888
 20
149.1541975
 30
0.0
  0
VERTEX
  5
868
  8
DEFAULT
 62
   178
 10
91.2966311111111
 20
149.1467891666667
 30
0.0
  0
VERTEX
  5
869
  8
DEFAULT
 62
   178
 10
91.24336166666666
 20
149.1316197222222
 30
0.0
  0
VERTEX
  5
86A
  8
DEFAULT
 62
   178
 10
91.21302277777777
 20
149.1238586111111
 30
0.0
  0
VERTEX
  5
86B
  8
DEFAULT
 62
   178
 10
91.19009222222222
 20
149.1086891666667
 30
0.0
  0
VERTEX
  5
86C
  8
DEFAULT
 62
   178
 10
91.16751444444444
 20
149.0935197222222
 30
0.0
  0
VERTEX
  5
86D
  8
DEFAULT
 62
   178
 10
91.14458388888887
 20
149.0705891666667
 30
0.0
  0
VERTEX
  5
86E
  8
DEFAULT
 62
   178
 10
91.12941444444444
 20
149.0480113888889
 30
0.0
  0
VERTEX
  5
86F
  8
DEFAULT
 62
   178
 10
91.10683666666667
 20
149.0250808333333
 30
0.0
  0
VERTEX
  5
870
  8
DEFAULT
 62
   178
 10
91.09166722222221
 20
149.0021502777778
 30
0.0
  0
VERTEX
  5
871
  8
DEFAULT
 62
   178
 10
91.0839061111111
 20
148.9795725
 30
0.0
  0
VERTEX
  5
872
  8
DEFAULT
 62
   178
 10
91.06873666666667
 20
148.9492336111111
 30
0.0
  0
VERTEX
  5
873
  8
DEFAULT
 62
   178
 10
91.06873666666667
 20
148.9263030555555
 30
0.0
  0
VERTEX
  5
874
  8
DEFAULT
 62
   178
 10
91.05356722222221
 20
148.8656252777778
 30
0.0
  0
SEQEND
  5
875
  8
DEFAULT
 62
   178
  0
LINE
  5
876
  8
DEFAULT
 62
   178
 10
91.34975944444444
 20
156.1789908333333
 30
0.0
 11
91.14479555555555
 21
156.1789908333333
 31
0.0
  0
POLYLINE
  5
877
  8
DEFAULT
 62
   178
 66
     1
 10
0.0
 20
0.0
 30
0.0
  0
VERTEX
  5
878
  8
DEFAULT
 62
   178
 10
91.11424499999998
 20
143.3674777777778
 30
0.0
  0
VERTEX
  5
879
  8
DEFAULT
 62
   178
 10
91.12200611111109
 20
143.4281555555555
 30
0.0
  0
VERTEX
  5
87A
  8
DEFAULT
 62
   178
 10
91.12941444444444
 20
143.4510861111111
 30
0.0
  0
VERTEX
  5
87B
  8
DEFAULT
 62
   178
 10
91.14458388888887
 20
143.4810722222222
 30
0.0
  0
VERTEX
  5
87C
  8
DEFAULT
 62
   178
 10
91.15199222222222
 20
143.5040027777778
 30
0.0
  0
VERTEX
  5
87D
  8
DEFAULT
 62
   178
 10
91.16751444444444
 20
143.5269333333333
 30
0.0
  0
VERTEX
  5
87E
  8
DEFAULT
 62
   178
 10
91.19009222222219
 20
143.5495111111111
 30
0.0
  0
VERTEX
  5
87F
  8
DEFAULT
 62
   178
 10
91.20526166666664
 20
143.5724416666667
 30
0.0
  0
VERTEX
  5
880
  8
DEFAULT
 62
   178
 10
91.22819222222219
 20
143.5876111111111
 30
0.0
  0
VERTEX
  5
881
  8
DEFAULT
 62
   178
 10
91.25112277777775
 20
143.6105416666667
 30
0.0
  0
VERTEX
  5
882
  8
DEFAULT
 62
   178
 10
91.27370055555554
 20
143.6257111111111
 30
0.0
  0
VERTEX
  5
883
  8
DEFAULT
 62
   178
 10
91.30403944444443
 20
143.6331194444444
 30
0.0
  0
VERTEX
  5
884
  8
DEFAULT
 62
   178
 10
91.32696999999999
 20
143.6408805555555
 30
0.0
  0
VERTEX
  5
885
  8
DEFAULT
 62
   178
 10
91.35730888888888
 20
143.6482888888889
 30
0.0
  0
VERTEX
  5
886
  8
DEFAULT
 62
   178
 10
91.41798666666665
 20
143.65605
 30
0.0
  0
SEQEND
  5
887
  8
DEFAULT
 62
   178
  0
LINE
  5
888
  8
DEFAULT
 62
   178
 10
91.41036666666665
 20
148.6453508333333
 30
0.0
 11
91.1143861111111
 21
148.6301813888889
 31
0.0
  0
LINE
  5
889
  8
DEFAULT
 62
   178
 10
91.47122083333332
 20
118.7920605555556
 30
0.0
 11
91.17524027777777
 21
118.9137688888889
 31
0.0
  0
LINE
  5
88A
  8
DEFAULT
 62
   178
 10
121.9700944444444
 20
138.4994619444444
 30
0.0
 11
121.9623333333333
 21
136.9652313888889
 31
0.0
  0
LINE
  5
88B
  8
DEFAULT
 62
   178
 10
121.9852638888889
 20
140.5955616666666
 30
0.0
 11
122.0081944444444
 21
139.4183422222222
 31
0.0
  0
LINE
  5
88C
  8
DEFAULT
 62
   178
 10
121.9624038888889
 20
140.6258652777778
 30
0.0
 11
121.9853344444444
 21
140.7701513888889
 31
0.0
  0
LINE
  5
88D
  8
DEFAULT
 62
   178
 10
121.9852638888889
 20
140.7700455555556
 30
0.0
 11
121.9852638888889
 21
140.5954205555556
 31
0.0
  0
LINE
  5
88E
  8
DEFAULT
 62
   178
 10
90.81805277777778
 20
140.5955616666666
 30
0.0
 11
90.81805277777778
 21
140.7701866666667
 31
0.0
  0
LINE
  5
88F
  8
DEFAULT
 62
   178
 10
90.81805277777778
 20
140.7700455555556
 30
0.0
 11
90.84098333333333
 21
140.6257594444445
 31
0.0
  0
LINE
  5
890
  8
DEFAULT
 62
   178
 10
90.84091277777777
 20
136.9653019444444
 30
0.0
 11
90.83350444444443
 21
138.4995325
 31
0.0
  0
LINE
  5
891
  8
DEFAULT
 62
   178
 10
90.78774916666664
 20
139.4182716666666
 30
0.0
 11
90.78034083333331
 21
139.4031022222222
 31
0.0
  0
LINE
  5
892
  8
DEFAULT
 62
   178
 10
90.78774916666667
 20
139.4182716666667
 30
0.0
 11
90.81808805555556
 21
140.5954911111111
 31
0.0
  0
POLYLINE
  5
893
  8
DEFAULT
 62
   178
 66
     1
 10
0.0
 20
0.0
 30
0.0
  0
VERTEX
  5
894
  8
DEFAULT
 62
   178
 10
111.8240644444444
 20
102.4111772222222
 30
0.0
  0
VERTEX
  5
895
  8
DEFAULT
 62
   178
 10
111.8999116666667
 20
102.433755
 30
0.0
  0
VERTEX
  5
896
  8
DEFAULT
 62
   178
 10
111.9683505555555
 20
102.4566855555556
 30
0.0
  0
VERTEX
  5
897
  8
DEFAULT
 62
   178
 10
112.0367894444444
 20
102.4870244444444
 30
0.0
  0
VERTEX
  5
898
  8
DEFAULT
 62
   178
 10
112.1048755555556
 20
102.5251244444444
 30
0.0
  0
VERTEX
  5
899
  8
DEFAULT
 62
   178
 10
112.1659061111111
 20
102.5706327777778
 30
0.0
  0
VERTEX
  5
89A
  8
DEFAULT
 62
   178
 10
112.2188227777778
 20
102.6161411111111
 30
0.0
  0
VERTEX
  5
89B
  8
DEFAULT
 62
   178
 10
112.2720922222222
 20
102.6694105555556
 30
0.0
  0
VERTEX
  5
89C
  8
DEFAULT
 62
   178
 10
112.3253616666667
 20
102.7300883333333
 30
0.0
  0
VERTEX
  5
89D
  8
DEFAULT
 62
   178
 10
112.37087
 20
102.7907661111111
 30
0.0
  0
VERTEX
  5
89E
  8
DEFAULT
 62
   178
 10
112.40897
 20
102.8514438888889
 30
0.0
  0
VERTEX
  5
89F
  8
DEFAULT
 62
   178
 10
112.4389561111111
 20
102.9198827777778
 30
0.0
  0
VERTEX
  5
8A0
  8
DEFAULT
 62
   178
 10
112.4696477777778
 20
102.9883216666667
 30
0.0
  0
VERTEX
  5
8A1
  8
DEFAULT
 62
   178
 10
112.4922255555555
 20
103.0567605555555
 30
0.0
  0
VERTEX
  5
8A2
  8
DEFAULT
 62
   178
 10
112.5151561111111
 20
103.1326077777778
 30
0.0
  0
VERTEX
  5
8A3
  8
DEFAULT
 62
   178
 10
112.5229172222222
 20
103.208455
 30
0.0
  0
VERTEX
  5
8A4
  8
DEFAULT
 62
   178
 10
112.5303255555555
 20
103.2843022222222
 30
0.0
  0
SEQEND
  5
8A5
  8
DEFAULT
 62
   178
  0
POLYLINE
  5
8A6
  8
DEFAULT
 62
   178
 66
     1
 10
0.0
 20
0.0
 30
0.0
  0
VERTEX
  5
8A7
  8
DEFAULT
 62
   178
 10
100.2730616666667
 20
103.2844080555556
 30
0.0
  0
VERTEX
  5
8A8
  8
DEFAULT
 62
   178
 10
100.2808227777778
 20
103.2085608333334
 30
0.0
  0
VERTEX
  5
8A9
  8
DEFAULT
 62
   178
 10
100.2882311111111
 20
103.1327136111111
 30
0.0
  0
VERTEX
  5
8AA
  8
DEFAULT
 62
   178
 10
100.3034005555556
 20
103.0565136111111
 30
0.0
  0
VERTEX
  5
8AB
  8
DEFAULT
 62
   178
 10
100.3263311111111
 20
102.9884275
 30
0.0
  0
VERTEX
  5
8AC
  8
DEFAULT
 62
   178
 10
100.35667
 20
102.9199886111111
 30
0.0
  0
VERTEX
  5
8AD
  8
DEFAULT
 62
   178
 10
100.39477
 20
102.8515497222222
 30
0.0
  0
VERTEX
  5
8AE
  8
DEFAULT
 62
   178
 10
100.4325172222222
 20
102.7908719444444
 30
0.0
  0
VERTEX
  5
8AF
  8
DEFAULT
 62
   178
 10
100.4780255555556
 20
102.7301941666666
 30
0.0
  0
VERTEX
  5
8B0
  8
DEFAULT
 62
   178
 10
100.5235338888889
 20
102.6695163888889
 30
0.0
  0
VERTEX
  5
8B1
  8
DEFAULT
 62
   178
 10
100.5768033333333
 20
102.6162469444444
 30
0.0
  0
VERTEX
  5
8B2
  8
DEFAULT
 62
   178
 10
100.6374811111111
 20
102.5707386111111
 30
0.0
  0
VERTEX
  5
8B3
  8
DEFAULT
 62
   178
 10
100.6985116666667
 20
102.5248775
 30
0.0
  0
VERTEX
  5
8B4
  8
DEFAULT
 62
   178
 10
100.7665977777778
 20
102.4871302777778
 30
0.0
  0
VERTEX
  5
8B5
  8
DEFAULT
 62
   178
 10
100.8350366666667
 20
102.4567913888889
 30
0.0
  0
VERTEX
  5
8B6
  8
DEFAULT
 62
   178
 10
100.9034755555555
 20
102.4338608333333
 30
0.0
  0
VERTEX
  5
8B7
  8
DEFAULT
 62
   178
 10
100.9715616666667
 20
102.4112830555555
 30
0.0
  0
SEQEND
  5
8B8
  8
DEFAULT
 62
   178
  0
POLYLINE
  5
8B9
  8
DEFAULT
 62
   178
 66
     1
 10
0.0
 20
0.0
 30
0.0
  0
VERTEX
  5
8BA
  8
DEFAULT
 62
   178
 10
112.4848172222222
 20
103.3148527777778
 30
0.0
  0
VERTEX
  5
8BB
  8
DEFAULT
 62
   178
 10
112.4848172222222
 20
103.2390055555556
 30
0.0
  0
VERTEX
  5
8BC
  8
DEFAULT
 62
   178
 10
112.4770561111111
 20
103.1628055555556
 30
0.0
  0
VERTEX
  5
8BD
  8
DEFAULT
 62
   178
 10
112.4544783333333
 20
103.0869583333333
 30
0.0
  0
VERTEX
  5
8BE
  8
DEFAULT
 62
   178
 10
112.4315477777778
 20
103.0185194444444
 30
0.0
  0
VERTEX
  5
8BF
  8
DEFAULT
 62
   178
 10
112.4012088888889
 20
102.9504333333333
 30
0.0
  0
VERTEX
  5
8C0
  8
DEFAULT
 62
   178
 10
112.37087
 20
102.8819944444444
 30
0.0
  0
VERTEX
  5
8C1
  8
DEFAULT
 62
   178
 10
112.3253616666667
 20
102.8213166666666
 30
0.0
  0
VERTEX
  5
8C2
  8
DEFAULT
 62
   178
 10
112.2872616666667
 20
102.7602861111111
 30
0.0
  0
VERTEX
  5
8C3
  8
DEFAULT
 62
   178
 10
112.234345
 20
102.6996083333333
 30
0.0
  0
VERTEX
  5
8C4
  8
DEFAULT
 62
   178
 10
112.1810755555556
 20
102.6466916666667
 30
0.0
  0
VERTEX
  5
8C5
  8
DEFAULT
 62
   178
 10
112.1203977777778
 20
102.6008305555555
 30
0.0
  0
VERTEX
  5
8C6
  8
DEFAULT
 62
   178
 10
112.05972
 20
102.5553222222222
 30
0.0
  0
VERTEX
  5
8C7
  8
DEFAULT
 62
   178
 10
111.9986894444444
 20
102.517575
 30
0.0
  0
VERTEX
  5
8C8
  8
DEFAULT
 62
   178
 10
111.9302505555555
 20
102.4868833333333
 30
0.0
  0
VERTEX
  5
8C9
  8
DEFAULT
 62
   178
 10
111.8621644444444
 20
102.4643055555555
 30
0.0
  0
VERTEX
  5
8CA
  8
DEFAULT
 62
   178
 10
111.7863172222222
 20
102.441375
 30
0.0
  0
SEQEND
  5
8CB
  8
DEFAULT
 62
   178
  0
POLYLINE
  5
8CC
  8
DEFAULT
 62
   178
 66
     1
 10
0.0
 20
0.0
 30
0.0
  0
VERTEX
  5
8CD
  8
DEFAULT
 62
   178
 10
101.0096969444445
 20
102.4414808333333
 30
0.0
  0
VERTEX
  5
8CE
  8
DEFAULT
 62
   178
 10
100.9412580555556
 20
102.4644113888889
 30
0.0
  0
VERTEX
  5
8CF
  8
DEFAULT
 62
   178
 10
100.8731719444444
 20
102.4869891666667
 30
0.0
  0
VERTEX
  5
8D0
  8
DEFAULT
 62
   178
 10
100.8047330555555
 20
102.5173280555555
 30
0.0
  0
VERTEX
  5
8D1
  8
DEFAULT
 62
   178
 10
100.7362941666667
 20
102.5554280555555
 30
0.0
  0
VERTEX
  5
8D2
  8
DEFAULT
 62
   178
 10
100.6756163888889
 20
102.6009363888889
 30
0.0
  0
VERTEX
  5
8D3
  8
DEFAULT
 62
   178
 10
100.6223469444444
 20
102.6464447222222
 30
0.0
  0
VERTEX
  5
8D4
  8
DEFAULT
 62
   178
 10
100.5694302777778
 20
102.6997141666667
 30
0.0
  0
VERTEX
  5
8D5
  8
DEFAULT
 62
   178
 10
100.5161608333333
 20
102.7603919444444
 30
0.0
  0
VERTEX
  5
8D6
  8
DEFAULT
 62
   178
 10
100.4706525
 20
102.8214225
 30
0.0
  0
VERTEX
  5
8D7
  8
DEFAULT
 62
   178
 10
100.4325525
 20
102.8821002777778
 30
0.0
  0
VERTEX
  5
8D8
  8
DEFAULT
 62
   178
 10
100.3948052777778
 20
102.9501863888889
 30
0.0
  0
VERTEX
  5
8D9
  8
DEFAULT
 62
   178
 10
100.3715219444444
 20
103.0186252777778
 30
0.0
  0
VERTEX
  5
8DA
  8
DEFAULT
 62
   178
 10
100.3415358333333
 20
103.0870641666666
 30
0.0
  0
VERTEX
  5
8DB
  8
DEFAULT
 62
   178
 10
100.3263663888889
 20
103.1629113888889
 30
0.0
  0
VERTEX
  5
8DC
  8
DEFAULT
 62
   178
 10
100.3186052777778
 20
103.2391113888889
 30
0.0
  0
VERTEX
  5
8DD
  8
DEFAULT
 62
   178
 10
100.3111969444444
 20
103.3149586111111
 30
0.0
  0
SEQEND
  5
8DE
  8
DEFAULT
 62
   178
  0
LINE
  5
8DF
  8
DEFAULT
 62
   178
 10
93.4154497222222
 20
155.3285847222222
 30
0.0
 11
93.29374138888886
 21
155.2146375
 31
0.0
  0
LINE
  5
8E0
  8
DEFAULT
 62
   178
 10
96.71893138888885
 20
155.2146727777777
 30
0.0
 11
96.59757583333334
 21
155.32862
 31
0.0
  0
LINE
  5
8E1
  8
DEFAULT
 62
   178
 10
93.29384722222221
 20
149.4960038888889
 30
0.0
 11
93.41555555555556
 21
149.3820566666666
 31
0.0
  0
LINE
  5
8E2
  8
DEFAULT
 62
   178
 10
96.59743472222222
 20
149.3821272222222
 30
0.0
 11
96.71879027777777
 21
149.4960744444444
 31
0.0
  0
LINE
  5
8E3
  8
DEFAULT
 62
   178
 10
96.59743472222222
 20
155.3285847222222
 30
0.0
 11
93.41537916666667
 21
155.3285847222222
 31
0.0
  0
LINE
  5
8E4
  8
DEFAULT
 62
   178
 10
93.4154497222222
 20
149.3821272222222
 30
0.0
 11
96.59750527777776
 21
149.3821272222222
 31
0.0
  0
LINE
  5
8E5
  8
DEFAULT
 62
   178
 10
93.29384722222221
 20
151.9110852777778
 30
0.0
 11
93.29384722222221
 21
155.2148491666667
 31
0.0
  0
LINE
  5
8E6
  8
DEFAULT
 62
   178
 10
93.29384722222221
 20
149.4960038888889
 30
0.0
 11
93.29384722222221
 21
150.4223983333333
 31
0.0
  0
LINE
  5
8E7
  8
DEFAULT
 62
   178
 10
96.71893138888889
 20
149.4960038888889
 30
0.0
 11
96.71893138888889
 21
155.2145316666666
 31
0.0
  0
LINE
  5
8E8
  8
DEFAULT
 62
   178
 10
92.76217583333333
 20
150.2099202777778
 30
0.0
 11
93.29381194444444
 21
150.4226452777778
 31
0.0
  0
LINE
  5
8E9
  8
DEFAULT
 62
   178
 10
93.29384722222223
 20
151.9110852777778
 30
0.0
 11
92.7622111111111
 21
152.1160491666667
 31
0.0
  0
LINE
  5
8EA
  8
DEFAULT
 62
   178
 10
92.76217583333333
 20
152.1160491666667
 30
0.0
 11
92.76217583333333
 21
150.2099908333333
 31
0.0
  0
LINE
  5
8EB
  8
DEFAULT
 62
   178
 10
96.83280805555555
 20
155.3285847222222
 30
0.0
 11
96.71886083333332
 21
155.2146375
 31
0.0
  0
LINE
  5
8EC
  8
DEFAULT
 62
   178
 10
100.1364661111111
 20
155.2146727777778
 30
0.0
 11
100.0147577777778
 21
155.32862
 31
0.0
  0
LINE
  5
8ED
  8
DEFAULT
 62
   178
 10
96.71893138888889
 20
149.4960038888889
 30
0.0
 11
96.8328786111111
 21
149.3820566666666
 31
0.0
  0
LINE
  5
8EE
  8
DEFAULT
 62
   178
 10
100.0148636111111
 20
149.3821272222222
 30
0.0
 11
100.1365719444445
 21
149.4960744444444
 31
0.0
  0
LINE
  5
8EF
  8
DEFAULT
 62
   178
 10
100.0148636111111
 20
155.3285847222222
 30
0.0
 11
96.83280805555556
 21
155.3285847222222
 31
0.0
  0
LINE
  5
8F0
  8
DEFAULT
 62
   178
 10
99.54390527777777
 20
152.1160491666667
 30
0.0
 11
99.54390527777777
 21
150.2099908333333
 31
0.0
  0
LINE
  5
8F1
  8
DEFAULT
 62
   178
 10
100.1364661111111
 20
149.4960038888889
 30
0.0
 11
100.1364661111111
 21
150.3617205555555
 31
0.0
  0
LINE
  5
8F2
  8
DEFAULT
 62
   178
 10
96.83280805555555
 20
149.3821272222222
 30
0.0
 11
100.0148636111111
 21
149.3821272222222
 31
0.0
  0
LINE
  5
8F3
  8
DEFAULT
 62
   178
 10
99.54390527777777
 20
150.2099202777777
 30
0.0
 11
100.1365719444444
 21
150.3616147222222
 31
0.0
  0
LINE
  5
8F4
  8
DEFAULT
 62
   178
 10
100.1364661111111
 20
151.9717277777778
 30
0.0
 11
99.54379944444443
 21
152.1160138888889
 31
0.0
  0
LINE
  5
8F5
  8
DEFAULT
 62
   178
 10
100.1364661111111
 20
151.9717277777778
 30
0.0
 11
100.1364661111111
 21
155.2148138888889
 31
0.0
  0
LINE
  5
8F6
  8
DEFAULT
 62
   178
 10
96.71893138888889
 20
149.4960038888889
 30
0.0
 11
96.71893138888889
 21
155.2145316666666
 31
0.0
  0
POLYLINE
  5
8F7
  8
DEFAULT
 62
   178
 66
     1
 10
0.0
 20
0.0
 30
0.0
  0
VERTEX
  5
8F8
  8
DEFAULT
 62
   178
 10
108.6117405555556
 20
107.8561963888889
 30
0.0
  0
VERTEX
  5
8F9
  8
DEFAULT
 62
   178
 10
108.6117405555556
 20
107.9472130555555
 30
0.0
  0
VERTEX
  5
8FA
  8
DEFAULT
 62
   178
 10
108.5965711111111
 20
108.0459908333333
 30
0.0
  0
VERTEX
  5
8FB
  8
DEFAULT
 62
   178
 10
108.5662322222222
 20
108.1373602777778
 30
0.0
  0
VERTEX
  5
8FC
  8
DEFAULT
 62
   178
 10
108.5358933333333
 20
108.2206158333333
 30
0.0
  0
VERTEX
  5
8FD
  8
DEFAULT
 62
   178
 10
108.4900322222222
 20
108.3042241666667
 30
0.0
  0
VERTEX
  5
8FE
  8
DEFAULT
 62
   178
 10
108.4371155555556
 20
108.3878325
 30
0.0
  0
VERTEX
  5
8FF
  8
DEFAULT
 62
   178
 10
108.3838461111111
 20
108.4640325
 30
0.0
  0
VERTEX
  5
900
  8
DEFAULT
 62
   178
 10
108.3154072222222
 20
108.5321186111111
 30
0.0
  0
VERTEX
  5
901
  8
DEFAULT
 62
   178
 10
108.23956
 20
108.5853880555556
 30
0.0
  0
VERTEX
  5
902
  8
DEFAULT
 62
   178
 10
108.1559516666667
 20
108.6383047222222
 30
0.0
  0
VERTEX
  5
903
  8
DEFAULT
 62
   178
 10
108.0723433333333
 20
108.6841658333333
 30
0.0
  0
VERTEX
  5
904
  8
DEFAULT
 62
   178
 10
107.9890877777778
 20
108.7145047222222
 30
0.0
  0
VERTEX
  5
905
  8
DEFAULT
 62
   178
 10
107.8977183333333
 20
108.7448436111111
 30
0.0
  0
VERTEX
  5
906
  8
DEFAULT
 62
   178
 10
107.7992933333333
 20
108.7600130555556
 30
0.0
  0
VERTEX
  5
907
  8
DEFAULT
 62
   178
 10
107.6091461111111
 20
108.7600130555556
 30
0.0
  0
VERTEX
  5
908
  8
DEFAULT
 62
   178
 10
107.5181294444444
 20
108.7448436111111
 30
0.0
  0
VERTEX
  5
909
  8
DEFAULT
 62
   178
 10
107.4271127777778
 20
108.7145047222222
 30
0.0
  0
VERTEX
  5
90A
  8
DEFAULT
 62
   178
 10
107.3357433333333
 20
108.6841658333333
 30
0.0
  0
VERTEX
  5
90B
  8
DEFAULT
 62
   178
 10
107.252135
 20
108.6383047222222
 30
0.0
  0
VERTEX
  5
90C
  8
DEFAULT
 62
   178
 10
107.1762877777778
 20
108.5853880555556
 30
0.0
  0
VERTEX
  5
90D
  8
DEFAULT
 62
   178
 10
107.1004405555556
 20
108.5321186111111
 30
0.0
  0
VERTEX
  5
90E
  8
DEFAULT
 62
   178
 10
107.0320016666667
 20
108.4640325
 30
0.0
  0
VERTEX
  5
90F
  8
DEFAULT
 62
   178
 10
106.9713238888889
 20
108.3878325
 30
0.0
  0
VERTEX
  5
910
  8
DEFAULT
 62
   178
 10
106.9180544444445
 20
108.3042241666667
 30
0.0
  0
VERTEX
  5
911
  8
DEFAULT
 62
   178
 10
106.8803072222222
 20
108.2206158333333
 30
0.0
  0
VERTEX
  5
912
  8
DEFAULT
 62
   178
 10
106.8422072222222
 20
108.1373602777778
 30
0.0
  0
VERTEX
  5
913
  8
DEFAULT
 62
   178
 10
106.8192766666667
 20
108.0459908333333
 30
0.0
  0
VERTEX
  5
914
  8
DEFAULT
 62
   178
 10
106.8041072222222
 20
107.9472130555555
 30
0.0
  0
VERTEX
  5
915
  8
DEFAULT
 62
   178
 10
106.7966988888889
 20
107.8561963888889
 30
0.0
  0
SEQEND
  5
916
  8
DEFAULT
 62
   178
  0
POLYLINE
  5
917
  8
DEFAULT
 62
   178
 66
     1
 10
0.0
 20
0.0
 30
0.0
  0
VERTEX
  5
918
  8
DEFAULT
 62
   178
 10
106.7966636111111
 20
107.8561963888889
 30
0.0
  0
VERTEX
  5
919
  8
DEFAULT
 62
   178
 10
106.8040719444444
 20
107.7574186111111
 30
0.0
  0
VERTEX
  5
91A
  8
DEFAULT
 62
   178
 10
106.8192413888889
 20
107.6664019444444
 30
0.0
  0
VERTEX
  5
91B
  8
DEFAULT
 62
   178
 10
106.8421719444444
 20
107.5753852777778
 30
0.0
  0
VERTEX
  5
91C
  8
DEFAULT
 62
   178
 10
106.8802719444444
 20
107.4840158333333
 30
0.0
  0
VERTEX
  5
91D
  8
DEFAULT
 62
   178
 10
106.9180191666667
 20
107.4007602777778
 30
0.0
  0
VERTEX
  5
91E
  8
DEFAULT
 62
   178
 10
106.9712886111111
 20
107.3171519444444
 30
0.0
  0
VERTEX
  5
91F
  8
DEFAULT
 62
   178
 10
107.0319663888889
 20
107.2487130555556
 30
0.0
  0
VERTEX
  5
920
  8
DEFAULT
 62
   178
 10
107.1004052777778
 20
107.1802741666667
 30
0.0
  0
VERTEX
  5
921
  8
DEFAULT
 62
   178
 10
107.1762525
 20
107.1195963888889
 30
0.0
  0
VERTEX
  5
922
  8
DEFAULT
 62
   178
 10
107.2520997222222
 20
107.0663269444444
 30
0.0
  0
VERTEX
  5
923
  8
DEFAULT
 62
   178
 10
107.3357080555556
 20
107.0285797222222
 30
0.0
  0
VERTEX
  5
924
  8
DEFAULT
 62
   178
 10
107.4270775
 20
106.9904797222222
 30
0.0
  0
VERTEX
  5
925
  8
DEFAULT
 62
   178
 10
107.5180941666667
 20
106.9675491666667
 30
0.0
  0
VERTEX
  5
926
  8
DEFAULT
 62
   178
 10
107.6091108333333
 20
106.9523797222222
 30
0.0
  0
VERTEX
  5
927
  8
DEFAULT
 62
   178
 10
107.7078886111111
 20
106.9449713888889
 30
0.0
  0
VERTEX
  5
928
  8
DEFAULT
 62
   178
 10
107.7992580555555
 20
106.9523797222222
 30
0.0
  0
VERTEX
  5
929
  8
DEFAULT
 62
   178
 10
107.8976830555555
 20
106.9675491666667
 30
0.0
  0
VERTEX
  5
92A
  8
DEFAULT
 62
   178
 10
107.9890525
 20
106.9904797222222
 30
0.0
  0
VERTEX
  5
92B
  8
DEFAULT
 62
   178
 10
108.0723080555555
 20
107.0285797222222
 30
0.0
  0
VERTEX
  5
92C
  8
DEFAULT
 62
   178
 10
108.1559163888889
 20
107.0663269444444
 30
0.0
  0
VERTEX
  5
92D
  8
DEFAULT
 62
   178
 10
108.2395247222222
 20
107.1195963888889
 30
0.0
  0
VERTEX
  5
92E
  8
DEFAULT
 62
   178
 10
108.3153719444444
 20
107.1802741666667
 30
0.0
  0
VERTEX
  5
92F
  8
DEFAULT
 62
   178
 10
108.3838108333333
 20
107.2487130555556
 30
0.0
  0
VERTEX
  5
930
  8
DEFAULT
 62
   178
 10
108.4370802777778
 20
107.3171519444444
 30
0.0
  0
VERTEX
  5
931
  8
DEFAULT
 62
   178
 10
108.4899969444444
 20
107.4007602777778
 30
0.0
  0
VERTEX
  5
932
  8
DEFAULT
 62
   178
 10
108.5358580555556
 20
107.4840158333333
 30
0.0
  0
VERTEX
  5
933
  8
DEFAULT
 62
   178
 10
108.5661969444444
 20
107.5753852777778
 30
0.0
  0
VERTEX
  5
934
  8
DEFAULT
 62
   178
 10
108.5965358333333
 20
107.6664019444444
 30
0.0
  0
VERTEX
  5
935
  8
DEFAULT
 62
   178
 10
108.6117052777778
 20
107.7574186111111
 30
0.0
  0
VERTEX
  5
936
  8
DEFAULT
 62
   178
 10
108.6117052777778
 20
107.8561963888889
 30
0.0
  0
SEQEND
  5
937
  8
DEFAULT
 62
   178
  0
POLYLINE
  5
938
  8
DEFAULT
 62
   178
 66
     1
 10
0.0
 20
0.0
 30
0.0
  0
VERTEX
  5
939
  8
DEFAULT
 62
   178
 10
108.3762613888889
 20
107.8561963888889
 30
0.0
  0
VERTEX
  5
93A
  8
DEFAULT
 62
   178
 10
108.3688530555556
 20
107.9323963888889
 30
0.0
  0
VERTEX
  5
93B
  8
DEFAULT
 62
   178
 10
108.3533308333333
 20
108.0156519444444
 30
0.0
  0
VERTEX
  5
93C
  8
DEFAULT
 62
   178
 10
108.3307530555555
 20
108.0918519444444
 30
0.0
  0
VERTEX
  5
93D
  8
DEFAULT
 62
   178
 10
108.3004141666667
 20
108.1676991666667
 30
0.0
  0
VERTEX
  5
93E
  8
DEFAULT
 62
   178
 10
108.2549058333333
 20
108.2361380555555
 30
0.0
  0
VERTEX
  5
93F
  8
DEFAULT
 62
   178
 10
108.2090447222222
 20
108.2968158333333
 30
0.0
  0
VERTEX
  5
940
  8
DEFAULT
 62
   178
 10
108.1483669444444
 20
108.3574936111111
 30
0.0
  0
VERTEX
  5
941
  8
DEFAULT
 62
   178
 10
108.0876891666667
 20
108.4030019444444
 30
0.0
  0
VERTEX
  5
942
  8
DEFAULT
 62
   178
 10
108.0192502777778
 20
108.4485102777778
 30
0.0
  0
VERTEX
  5
943
  8
DEFAULT
 62
   178
 10
107.9434030555556
 20
108.4788491666667
 30
0.0
  0
VERTEX
  5
944
  8
DEFAULT
 62
   178
 10
107.8672030555555
 20
108.5017797222222
 30
0.0
  0
VERTEX
  5
945
  8
DEFAULT
 62
   178
 10
107.7839475
 20
108.5169491666667
 30
0.0
  0
VERTEX
  5
946
  8
DEFAULT
 62
   178
 10
107.7081002777778
 20
108.5247102777778
 30
0.0
  0
VERTEX
  5
947
  8
DEFAULT
 62
   178
 10
107.6244919444444
 20
108.5169491666667
 30
0.0
  0
VERTEX
  5
948
  8
DEFAULT
 62
   178
 10
107.5486447222222
 20
108.5017797222222
 30
0.0
  0
VERTEX
  5
949
  8
DEFAULT
 62
   178
 10
107.4724447222222
 20
108.4788491666667
 30
0.0
  0
VERTEX
  5
94A
  8
DEFAULT
 62
   178
 10
107.3965975
 20
108.4485102777778
 30
0.0
  0
VERTEX
  5
94B
  8
DEFAULT
 62
   178
 10
107.3281586111111
 20
108.4030019444444
 30
0.0
  0
VERTEX
  5
94C
  8
DEFAULT
 62
   178
 10
107.2600725
 20
108.3574936111111
 30
0.0
  0
VERTEX
  5
94D
  8
DEFAULT
 62
   178
 10
107.1535336111111
 20
108.2361380555555
 30
0.0
  0
VERTEX
  5
94E
  8
DEFAULT
 62
   178
 10
107.1154336111111
 20
108.1676991666667
 30
0.0
  0
VERTEX
  5
94F
  8
DEFAULT
 62
   178
 10
107.0776863888889
 20
108.0918519444444
 30
0.0
  0
VERTEX
  5
950
  8
DEFAULT
 62
   178
 10
107.0547558333333
 20
108.0156519444444
 30
0.0
  0
VERTEX
  5
951
  8
DEFAULT
 62
   178
 10
107.0395863888889
 20
107.9323963888889
 30
0.0
  0
VERTEX
  5
952
  8
DEFAULT
 62
   178
 10
107.0395863888889
 20
107.8561963888889
 30
0.0
  0
SEQEND
  5
953
  8
DEFAULT
 62
   178
  0
POLYLINE
  5
954
  8
DEFAULT
 62
   178
 66
     1
 10
0.0
 20
0.0
 30
0.0
  0
VERTEX
  5
955
  8
DEFAULT
 62
   178
 10
107.0395158333333
 20
107.8561963888889
 30
0.0
  0
VERTEX
  5
956
  8
DEFAULT
 62
   178
 10
107.0395158333333
 20
107.7725880555555
 30
0.0
  0
VERTEX
  5
957
  8
DEFAULT
 62
   178
 10
107.0546852777778
 20
107.6967408333333
 30
0.0
  0
VERTEX
  5
958
  8
DEFAULT
 62
   178
 10
107.0776158333333
 20
107.6131325
 30
0.0
  0
VERTEX
  5
959
  8
DEFAULT
 62
   178
 10
107.1153630555555
 20
107.5446936111111
 30
0.0
  0
VERTEX
  5
95A
  8
DEFAULT
 62
   178
 10
107.1534630555555
 20
107.4766075
 30
0.0
  0
VERTEX
  5
95B
  8
DEFAULT
 62
   178
 10
107.2067325
 20
107.4081686111111
 30
0.0
  0
VERTEX
  5
95C
  8
DEFAULT
 62
   178
 10
107.2600019444444
 20
107.3548991666667
 30
0.0
  0
VERTEX
  5
95D
  8
DEFAULT
 62
   178
 10
107.3280880555555
 20
107.3019825
 30
0.0
  0
VERTEX
  5
95E
  8
DEFAULT
 62
   178
 10
107.3965269444444
 20
107.2638825
 30
0.0
  0
VERTEX
  5
95F
  8
DEFAULT
 62
   178
 10
107.4727269444444
 20
107.2261352777778
 30
0.0
  0
VERTEX
  5
960
  8
DEFAULT
 62
   178
 10
107.5485741666667
 20
107.2032047222222
 30
0.0
  0
VERTEX
  5
961
  8
DEFAULT
 62
   178
 10
107.6244213888889
 20
107.1880352777778
 30
0.0
  0
VERTEX
  5
962
  8
DEFAULT
 62
   178
 10
107.7838769444444
 20
107.1880352777778
 30
0.0
  0
VERTEX
  5
963
  8
DEFAULT
 62
   178
 10
107.8671325
 20
107.2032047222222
 30
0.0
  0
VERTEX
  5
964
  8
DEFAULT
 62
   178
 10
107.9433325
 20
107.2261352777778
 30
0.0
  0
VERTEX
  5
965
  8
DEFAULT
 62
   178
 10
108.0191797222222
 20
107.2638825
 30
0.0
  0
VERTEX
  5
966
  8
DEFAULT
 62
   178
 10
108.0876186111111
 20
107.3019825
 30
0.0
  0
VERTEX
  5
967
  8
DEFAULT
 62
   178
 10
108.1482963888889
 20
107.3548991666667
 30
0.0
  0
VERTEX
  5
968
  8
DEFAULT
 62
   178
 10
108.2089741666667
 20
107.4081686111111
 30
0.0
  0
VERTEX
  5
969
  8
DEFAULT
 62
   178
 10
108.2548352777778
 20
107.4766075
 30
0.0
  0
VERTEX
  5
96A
  8
DEFAULT
 62
   178
 10
108.3003436111111
 20
107.5446936111111
 30
0.0
  0
VERTEX
  5
96B
  8
DEFAULT
 62
   178
 10
108.3306825
 20
107.6131325
 30
0.0
  0
VERTEX
  5
96C
  8
DEFAULT
 62
   178
 10
108.3532602777778
 20
107.6967408333333
 30
0.0
  0
VERTEX
  5
96D
  8
DEFAULT
 62
   178
 10
108.3687825
 20
107.7725880555555
 30
0.0
  0
VERTEX
  5
96E
  8
DEFAULT
 62
   178
 10
108.3761908333333
 20
107.8561963888889
 30
0.0
  0
SEQEND
  5
96F
  8
DEFAULT
 62
   178
  0
POLYLINE
  5
970
  8
DEFAULT
 62
   178
 66
     1
 10
0.0
 20
0.0
 30
0.0
  0
VERTEX
  5
971
  8
DEFAULT
 62
   178
 10
103.910765
 20
107.8561963888889
 30
0.0
  0
VERTEX
  5
972
  8
DEFAULT
 62
   178
 10
103.910765
 20
107.9323963888889
 30
0.0
  0
VERTEX
  5
973
  8
DEFAULT
 62
   178
 10
103.8955955555555
 20
108.0156519444444
 30
0.0
  0
VERTEX
  5
974
  8
DEFAULT
 62
   178
 10
103.8730177777778
 20
108.0918519444444
 30
0.0
  0
VERTEX
  5
975
  8
DEFAULT
 62
   178
 10
103.8349177777778
 20
108.1676991666667
 30
0.0
  0
VERTEX
  5
976
  8
DEFAULT
 62
   178
 10
103.7968177777778
 20
108.2361380555555
 30
0.0
  0
VERTEX
  5
977
  8
DEFAULT
 62
   178
 10
103.7435483333333
 20
108.2968158333333
 30
0.0
  0
VERTEX
  5
978
  8
DEFAULT
 62
   178
 10
103.6906316666667
 20
108.3574936111111
 30
0.0
  0
VERTEX
  5
979
  8
DEFAULT
 62
   178
 10
103.5537538888889
 20
108.4485102777778
 30
0.0
  0
VERTEX
  5
97A
  8
DEFAULT
 62
   178
 10
103.485315
 20
108.4788491666667
 30
0.0
  0
VERTEX
  5
97B
  8
DEFAULT
 62
   178
 10
103.4020594444444
 20
108.5017797222222
 30
0.0
  0
VERTEX
  5
97C
  8
DEFAULT
 62
   178
 10
103.3258594444444
 20
108.5169491666667
 30
0.0
  0
VERTEX
  5
97D
  8
DEFAULT
 62
   178
 10
103.2422511111111
 20
108.5247102777778
 30
0.0
  0
VERTEX
  5
97E
  8
DEFAULT
 62
   178
 10
103.1664038888889
 20
108.5169491666667
 30
0.0
  0
VERTEX
  5
97F
  8
DEFAULT
 62
   178
 10
103.0827955555556
 20
108.5017797222222
 30
0.0
  0
VERTEX
  5
980
  8
DEFAULT
 62
   178
 10
103.0069483333333
 20
108.4788491666667
 30
0.0
  0
VERTEX
  5
981
  8
DEFAULT
 62
   178
 10
102.9311011111111
 20
108.4485102777778
 30
0.0
  0
VERTEX
  5
982
  8
DEFAULT
 62
   178
 10
102.8626622222222
 20
108.4030019444444
 30
0.0
  0
VERTEX
  5
983
  8
DEFAULT
 62
   178
 10
102.8019844444445
 20
108.3574936111111
 30
0.0
  0
VERTEX
  5
984
  8
DEFAULT
 62
   178
 10
102.7413066666667
 20
108.2968158333333
 30
0.0
  0
VERTEX
  5
985
  8
DEFAULT
 62
   178
 10
102.6954455555556
 20
108.2361380555555
 30
0.0
  0
VERTEX
  5
986
  8
DEFAULT
 62
   178
 10
102.6499372222222
 20
108.1676991666667
 30
0.0
  0
VERTEX
  5
987
  8
DEFAULT
 62
   178
 10
102.6195983333333
 20
108.0918519444444
 30
0.0
  0
VERTEX
  5
988
  8
DEFAULT
 62
   178
 10
102.5970205555556
 20
108.0156519444444
 30
0.0
  0
VERTEX
  5
989
  8
DEFAULT
 62
   178
 10
102.5818511111111
 20
107.9323963888889
 30
0.0
  0
VERTEX
  5
98A
  8
DEFAULT
 62
   178
 10
102.57409
 20
107.8561963888889
 30
0.0
  0
SEQEND
  5
98B
  8
DEFAULT
 62
   178
  0
POLYLINE
  5
98C
  8
DEFAULT
 62
   178
 66
     1
 10
0.0
 20
0.0
 30
0.0
  0
VERTEX
  5
98D
  8
DEFAULT
 62
   178
 10
102.5742663888888
 20
107.8561963888889
 30
0.0
  0
VERTEX
  5
98E
  8
DEFAULT
 62
   178
 10
102.5816747222222
 20
107.7725880555555
 30
0.0
  0
VERTEX
  5
98F
  8
DEFAULT
 62
   178
 10
102.5968441666667
 20
107.6967408333333
 30
0.0
  0
VERTEX
  5
990
  8
DEFAULT
 62
   178
 10
102.6197747222222
 20
107.6131325
 30
0.0
  0
VERTEX
  5
991
  8
DEFAULT
 62
   178
 10
102.6501136111111
 20
107.5446936111111
 30
0.0
  0
VERTEX
  5
992
  8
DEFAULT
 62
   178
 10
102.6956219444444
 20
107.4766075
 30
0.0
  0
VERTEX
  5
993
  8
DEFAULT
 62
   178
 10
102.7414830555555
 20
107.4081686111111
 30
0.0
  0
VERTEX
  5
994
  8
DEFAULT
 62
   178
 10
102.8021608333333
 20
107.3548991666667
 30
0.0
  0
VERTEX
  5
995
  8
DEFAULT
 62
   178
 10
102.8628386111111
 20
107.3019825
 30
0.0
  0
VERTEX
  5
996
  8
DEFAULT
 62
   178
 10
102.9309247222222
 20
107.2638825
 30
0.0
  0
VERTEX
  5
997
  8
DEFAULT
 62
   178
 10
103.0071247222222
 20
107.2261352777778
 30
0.0
  0
VERTEX
  5
998
  8
DEFAULT
 62
   178
 10
103.0829719444444
 20
107.2032047222222
 30
0.0
  0
VERTEX
  5
999
  8
DEFAULT
 62
   178
 10
103.1665802777778
 20
107.1880352777778
 30
0.0
  0
VERTEX
  5
99A
  8
DEFAULT
 62
   178
 10
103.3260358333333
 20
107.1880352777778
 30
0.0
  0
VERTEX
  5
99B
  8
DEFAULT
 62
   178
 10
103.4018830555556
 20
107.2032047222222
 30
0.0
  0
VERTEX
  5
99C
  8
DEFAULT
 62
   178
 10
103.4854913888889
 20
107.2261352777778
 30
0.0
  0
VERTEX
  5
99D
  8
DEFAULT
 62
   178
 10
103.5535775
 20
107.2638825
 30
0.0
  0
VERTEX
  5
99E
  8
DEFAULT
 62
   178
 10
103.6223691666667
 20
107.3019825
 30
0.0
  0
VERTEX
  5
99F
  8
DEFAULT
 62
   178
 10
103.6904552777778
 20
107.3548991666667
 30
0.0
  0
VERTEX
  5
9A0
  8
DEFAULT
 62
   178
 10
103.7437247222222
 20
107.4081686111111
 30
0.0
  0
VERTEX
  5
9A1
  8
DEFAULT
 62
   178
 10
103.7969941666667
 20
107.4766075
 30
0.0
  0
VERTEX
  5
9A2
  8
DEFAULT
 62
   178
 10
103.8347413888889
 20
107.5446936111111
 30
0.0
  0
VERTEX
  5
9A3
  8
DEFAULT
 62
   178
 10
103.8728413888889
 20
107.6131325
 30
0.0
  0
VERTEX
  5
9A4
  8
DEFAULT
 62
   178
 10
103.8954191666667
 20
107.6967408333333
 30
0.0
  0
VERTEX
  5
9A5
  8
DEFAULT
 62
   178
 10
103.9109413888889
 20
107.7725880555555
 30
0.0
  0
VERTEX
  5
9A6
  8
DEFAULT
 62
   178
 10
103.9109413888889
 20
107.8561963888889
 30
0.0
  0
SEQEND
  5
9A7
  8
DEFAULT
 62
   178
  0
POLYLINE
  5
9A8
  8
DEFAULT
 62
   178
 66
     1
 10
0.0
 20
0.0
 30
0.0
  0
VERTEX
  5
9A9
  8
DEFAULT
 62
   178
 10
104.1537230555555
 20
107.8561963888889
 30
0.0
  0
VERTEX
  5
9AA
  8
DEFAULT
 62
   178
 10
104.1463147222222
 20
107.9472130555555
 30
0.0
  0
VERTEX
  5
9AB
  8
DEFAULT
 62
   178
 10
104.1311452777778
 20
108.0459908333333
 30
0.0
  0
VERTEX
  5
9AC
  8
DEFAULT
 62
   178
 10
104.1082147222222
 20
108.1373602777778
 30
0.0
  0
VERTEX
  5
9AD
  8
DEFAULT
 62
   178
 10
104.0701147222222
 20
108.2206158333333
 30
0.0
  0
VERTEX
  5
9AE
  8
DEFAULT
 62
   178
 10
104.0323675
 20
108.3042241666667
 30
0.0
  0
VERTEX
  5
9AF
  8
DEFAULT
 62
   178
 10
103.9790980555555
 20
108.3878325
 30
0.0
  0
VERTEX
  5
9B0
  8
DEFAULT
 62
   178
 10
103.9184202777778
 20
108.4640325
 30
0.0
  0
VERTEX
  5
9B1
  8
DEFAULT
 62
   178
 10
103.8499813888889
 20
108.5321186111111
 30
0.0
  0
VERTEX
  5
9B2
  8
DEFAULT
 62
   178
 10
103.7741341666667
 20
108.5853880555556
 30
0.0
  0
VERTEX
  5
9B3
  8
DEFAULT
 62
   178
 10
103.6982869444444
 20
108.6383047222222
 30
0.0
  0
VERTEX
  5
9B4
  8
DEFAULT
 62
   178
 10
103.6146786111111
 20
108.6841658333333
 30
0.0
  0
VERTEX
  5
9B5
  8
DEFAULT
 62
   178
 10
103.5233091666667
 20
108.7145047222222
 30
0.0
  0
VERTEX
  5
9B6
  8
DEFAULT
 62
   178
 10
103.4322925
 20
108.7448436111111
 30
0.0
  0
VERTEX
  5
9B7
  8
DEFAULT
 62
   178
 10
103.3412758333333
 20
108.7600130555556
 30
0.0
  0
VERTEX
  5
9B8
  8
DEFAULT
 62
   178
 10
103.1514813888889
 20
108.7600130555556
 30
0.0
  0
VERTEX
  5
9B9
  8
DEFAULT
 62
   178
 10
103.0527036111111
 20
108.7448436111111
 30
0.0
  0
VERTEX
  5
9BA
  8
DEFAULT
 62
   178
 10
102.9613341666667
 20
108.7145047222222
 30
0.0
  0
VERTEX
  5
9BB
  8
DEFAULT
 62
   178
 10
102.8777258333333
 20
108.6841658333333
 30
0.0
  0
VERTEX
  5
9BC
  8
DEFAULT
 62
   178
 10
102.7944702777778
 20
108.6383047222222
 30
0.0
  0
VERTEX
  5
9BD
  8
DEFAULT
 62
   178
 10
102.7108619444444
 20
108.5853880555556
 30
0.0
  0
VERTEX
  5
9BE
  8
DEFAULT
 62
   178
 10
102.6350147222222
 20
108.5321186111111
 30
0.0
  0
VERTEX
  5
9BF
  8
DEFAULT
 62
   178
 10
102.5743369444444
 20
108.4640325
 30
0.0
  0
VERTEX
  5
9C0
  8
DEFAULT
 62
   178
 10
102.5133063888889
 20
108.3878325
 30
0.0
  0
VERTEX
  5
9C1
  8
DEFAULT
 62
   178
 10
102.4603897222222
 20
108.3042241666667
 30
0.0
  0
VERTEX
  5
9C2
  8
DEFAULT
 62
   178
 10
102.4148813888889
 20
108.2206158333333
 30
0.0
  0
VERTEX
  5
9C3
  8
DEFAULT
 62
   178
 10
102.3841897222222
 20
108.1373602777778
 30
0.0
  0
VERTEX
  5
9C4
  8
DEFAULT
 62
   178
 10
102.3538508333333
 20
108.0459908333333
 30
0.0
  0
VERTEX
  5
9C5
  8
DEFAULT
 62
   178
 10
102.3386813888889
 20
107.9472130555555
 30
0.0
  0
VERTEX
  5
9C6
  8
DEFAULT
 62
   178
 10
102.3386813888889
 20
107.8561963888889
 30
0.0
  0
SEQEND
  5
9C7
  8
DEFAULT
 62
   178
  0
POLYLINE
  5
9C8
  8
DEFAULT
 62
   178
 66
     1
 10
0.0
 20
0.0
 30
0.0
  0
VERTEX
  5
9C9
  8
DEFAULT
 62
   178
 10
102.3387519444444
 20
107.8561963888889
 30
0.0
  0
VERTEX
  5
9CA
  8
DEFAULT
 62
   178
 10
102.3387519444444
 20
107.7574186111111
 30
0.0
  0
VERTEX
  5
9CB
  8
DEFAULT
 62
   178
 10
102.3539213888889
 20
107.6664019444444
 30
0.0
  0
VERTEX
  5
9CC
  8
DEFAULT
 62
   178
 10
102.3842602777778
 20
107.5753852777778
 30
0.0
  0
VERTEX
  5
9CD
  8
DEFAULT
 62
   178
 10
102.4145991666667
 20
107.4840158333333
 30
0.0
  0
VERTEX
  5
9CE
  8
DEFAULT
 62
   178
 10
102.4601075
 20
107.4007602777778
 30
0.0
  0
VERTEX
  5
9CF
  8
DEFAULT
 62
   178
 10
102.5133769444444
 20
107.3171519444444
 30
0.0
  0
VERTEX
  5
9D0
  8
DEFAULT
 62
   178
 10
102.5744075
 20
107.2487130555556
 30
0.0
  0
VERTEX
  5
9D1
  8
DEFAULT
 62
   178
 10
102.6350852777778
 20
107.1802741666667
 30
0.0
  0
VERTEX
  5
9D2
  8
DEFAULT
 62
   178
 10
102.7109325
 20
107.1195963888889
 30
0.0
  0
VERTEX
  5
9D3
  8
DEFAULT
 62
   178
 10
102.7945408333333
 20
107.0663269444444
 30
0.0
  0
VERTEX
  5
9D4
  8
DEFAULT
 62
   178
 10
102.8777963888889
 20
107.0285797222222
 30
0.0
  0
VERTEX
  5
9D5
  8
DEFAULT
 62
   178
 10
102.9614047222222
 20
106.9904797222222
 30
0.0
  0
VERTEX
  5
9D6
  8
DEFAULT
 62
   178
 10
103.0527741666667
 20
106.9675491666667
 30
0.0
  0
VERTEX
  5
9D7
  8
DEFAULT
 62
   178
 10
103.1511991666667
 20
106.9523797222222
 30
0.0
  0
VERTEX
  5
9D8
  8
DEFAULT
 62
   178
 10
103.2425686111111
 20
106.9449713888889
 30
0.0
  0
VERTEX
  5
9D9
  8
DEFAULT
 62
   178
 10
103.3409936111111
 20
106.9523797222222
 30
0.0
  0
VERTEX
  5
9DA
  8
DEFAULT
 62
   178
 10
103.4323630555556
 20
106.9675491666667
 30
0.0
  0
VERTEX
  5
9DB
  8
DEFAULT
 62
   178
 10
103.5233797222222
 20
106.9904797222222
 30
0.0
  0
VERTEX
  5
9DC
  8
DEFAULT
 62
   178
 10
103.6147491666667
 20
107.0285797222222
 30
0.0
  0
VERTEX
  5
9DD
  8
DEFAULT
 62
   178
 10
103.6980047222222
 20
107.0663269444444
 30
0.0
  0
VERTEX
  5
9DE
  8
DEFAULT
 62
   178
 10
103.7742047222222
 20
107.1195963888889
 30
0.0
  0
VERTEX
  5
9DF
  8
DEFAULT
 62
   178
 10
103.8500519444444
 20
107.1802741666667
 30
0.0
  0
VERTEX
  5
9E0
  8
DEFAULT
 62
   178
 10
103.9184908333333
 20
107.2487130555556
 30
0.0
  0
VERTEX
  5
9E1
  8
DEFAULT
 62
   178
 10
103.9791686111111
 20
107.3171519444444
 30
0.0
  0
VERTEX
  5
9E2
  8
DEFAULT
 62
   178
 10
104.0324380555555
 20
107.4007602777778
 30
0.0
  0
VERTEX
  5
9E3
  8
DEFAULT
 62
   178
 10
104.0701852777778
 20
107.4840158333333
 30
0.0
  0
VERTEX
  5
9E4
  8
DEFAULT
 62
   178
 10
104.1082852777778
 20
107.5753852777778
 30
0.0
  0
VERTEX
  5
9E5
  8
DEFAULT
 62
   178
 10
104.1312158333333
 20
107.6664019444444
 30
0.0
  0
VERTEX
  5
9E6
  8
DEFAULT
 62
   178
 10
104.1463852777778
 20
107.7574186111111
 30
0.0
  0
VERTEX
  5
9E7
  8
DEFAULT
 62
   178
 10
104.1537936111111
 20
107.8561963888889
 30
0.0
  0
SEQEND
  5
9E8
  8
DEFAULT
 62
   178
  0
POLYLINE
  5
9E9
  8
DEFAULT
 62
   178
 66
     1
 10
0.0
 20
0.0
 30
0.0
  0
VERTEX
  5
9EA
  8
DEFAULT
 62
   178
 10
107.1536394444444
 20
107.734735
 30
0.0
  0
VERTEX
  5
9EB
  8
DEFAULT
 62
   178
 10
107.1762172222222
 20
107.6662961111111
 30
0.0
  0
VERTEX
  5
9EC
  8
DEFAULT
 62
   178
 10
107.1991477777778
 20
107.5978572222222
 30
0.0
  0
VERTEX
  5
9ED
  8
DEFAULT
 62
   178
 10
107.2372477777778
 20
107.5371794444444
 30
0.0
  0
VERTEX
  5
9EE
  8
DEFAULT
 62
   178
 10
107.2827561111111
 20
107.4765016666666
 30
0.0
  0
VERTEX
  5
9EF
  8
DEFAULT
 62
   178
 10
107.3360255555555
 20
107.4232322222222
 30
0.0
  0
VERTEX
  5
9F0
  8
DEFAULT
 62
   178
 10
107.3967033333333
 20
107.385485
 30
0.0
  0
VERTEX
  5
9F1
  8
DEFAULT
 62
   178
 10
107.4570283333333
 20
107.347385
 30
0.0
  0
VERTEX
  5
9F2
  8
DEFAULT
 62
   178
 10
107.52582
 20
107.3170461111111
 30
0.0
  0
VERTEX
  5
9F3
  8
DEFAULT
 62
   178
 10
107.5939061111111
 20
107.3018766666667
 30
0.0
  0
VERTEX
  5
9F4
  8
DEFAULT
 62
   178
 10
107.6701061111111
 20
107.2867072222222
 30
0.0
  0
VERTEX
  5
9F5
  8
DEFAULT
 62
   178
 10
107.7459533333333
 20
107.2867072222222
 30
0.0
  0
VERTEX
  5
9F6
  8
DEFAULT
 62
   178
 10
107.8143922222222
 20
107.3018766666667
 30
0.0
  0
VERTEX
  5
9F7
  8
DEFAULT
 62
   178
 10
107.8828311111111
 20
107.3170461111111
 30
0.0
  0
VERTEX
  5
9F8
  8
DEFAULT
 62
   178
 10
107.9509172222222
 20
107.347385
 30
0.0
  0
VERTEX
  5
9F9
  8
DEFAULT
 62
   178
 10
108.0193561111111
 20
107.385485
 30
0.0
  0
VERTEX
  5
9FA
  8
DEFAULT
 62
   178
 10
108.0726255555555
 20
107.4232322222222
 30
0.0
  0
VERTEX
  5
9FB
  8
DEFAULT
 62
   178
 10
108.1255422222222
 20
107.4765016666666
 30
0.0
  0
VERTEX
  5
9FC
  8
DEFAULT
 62
   178
 10
108.1714033333333
 20
107.5371794444444
 30
0.0
  0
VERTEX
  5
9FD
  8
DEFAULT
 62
   178
 10
108.2091505555556
 20
107.5978572222222
 30
0.0
  0
VERTEX
  5
9FE
  8
DEFAULT
 62
   178
 10
108.2394894444444
 20
107.6662961111111
 30
0.0
  0
VERTEX
  5
9FF
  8
DEFAULT
 62
   178
 10
108.26242
 20
107.734735
 30
0.0
  0
SEQEND
  5
A00
  8
DEFAULT
 62
   178
  0
LINE
  5
A01
  8
DEFAULT
 62
   178
 10
107.1536394444445
 20
107.9701083333334
 30
0.0
 11
107.1536394444444
 21
107.7348055555556
 31
0.0
  0
LINE
  5
A02
  8
DEFAULT
 62
   178
 10
108.2623494444444
 20
107.734735
 30
0.0
 11
108.2623494444444
 21
107.9700377777777
 31
0.0
  0
POLYLINE
  5
A03
  8
DEFAULT
 62
   178
 66
     1
 10
0.0
 20
0.0
 30
0.0
  0
VERTEX
  5
A04
  8
DEFAULT
 62
   178
 10
108.2623494444444
 20
107.9701083333333
 30
0.0
  0
VERTEX
  5
A05
  8
DEFAULT
 62
   178
 10
108.2394188888889
 20
108.0459555555555
 30
0.0
  0
VERTEX
  5
A06
  8
DEFAULT
 62
   178
 10
108.20908
 20
108.1143944444444
 30
0.0
  0
VERTEX
  5
A07
  8
DEFAULT
 62
   178
 10
108.1713327777778
 20
108.1750722222222
 30
0.0
  0
VERTEX
  5
A08
  8
DEFAULT
 62
   178
 10
108.1254716666667
 20
108.2283416666667
 30
0.0
  0
VERTEX
  5
A09
  8
DEFAULT
 62
   178
 10
108.072555
 20
108.2816111111111
 30
0.0
  0
VERTEX
  5
A0A
  8
DEFAULT
 62
   178
 10
108.0192855555555
 20
108.3271194444444
 30
0.0
  0
VERTEX
  5
A0B
  8
DEFAULT
 62
   178
 10
107.9508466666667
 20
108.3652194444444
 30
0.0
  0
VERTEX
  5
A0C
  8
DEFAULT
 62
   178
 10
107.8827605555555
 20
108.3877972222222
 30
0.0
  0
VERTEX
  5
A0D
  8
DEFAULT
 62
   178
 10
107.8143216666667
 20
108.4107277777778
 30
0.0
  0
VERTEX
  5
A0E
  8
DEFAULT
 62
   178
 10
107.7458827777778
 20
108.4181361111111
 30
0.0
  0
VERTEX
  5
A0F
  8
DEFAULT
 62
   178
 10
107.6700355555556
 20
108.4181361111111
 30
0.0
  0
VERTEX
  5
A10
  8
DEFAULT
 62
   178
 10
107.5941883333333
 20
108.4107277777778
 30
0.0
  0
VERTEX
  5
A11
  8
DEFAULT
 62
   178
 10
107.5257494444444
 20
108.3877972222222
 30
0.0
  0
VERTEX
  5
A12
  8
DEFAULT
 62
   178
 10
107.4573105555556
 20
108.3652194444444
 30
0.0
  0
VERTEX
  5
A13
  8
DEFAULT
 62
   178
 10
107.3966327777778
 20
108.3271194444444
 30
0.0
  0
VERTEX
  5
A14
  8
DEFAULT
 62
   178
 10
107.335955
 20
108.2816111111111
 30
0.0
  0
VERTEX
  5
A15
  8
DEFAULT
 62
   178
 10
107.2826855555555
 20
108.2283416666667
 30
0.0
  0
VERTEX
  5
A16
  8
DEFAULT
 62
   178
 10
107.2371772222222
 20
108.1750722222222
 30
0.0
  0
VERTEX
  5
A17
  8
DEFAULT
 62
   178
 10
107.1990772222222
 20
108.1143944444444
 30
0.0
  0
VERTEX
  5
A18
  8
DEFAULT
 62
   178
 10
107.1764994444444
 20
108.0459555555555
 30
0.0
  0
VERTEX
  5
A19
  8
DEFAULT
 62
   178
 10
107.1535688888889
 20
107.9701083333333
 30
0.0
  0
SEQEND
  5
A1A
  8
DEFAULT
 62
   178
  0
POLYLINE
  5
A1B
  8
DEFAULT
 62
   178
 66
     1
 10
0.0
 20
0.0
 30
0.0
  0
VERTEX
  5
A1C
  8
DEFAULT
 62
   178
 10
102.6956219444445
 20
107.734735
 30
0.0
  0
VERTEX
  5
A1D
  8
DEFAULT
 62
   178
 10
102.7107913888889
 20
107.6662961111111
 30
0.0
  0
VERTEX
  5
A1E
  8
DEFAULT
 62
   178
 10
102.7414830555555
 20
107.5978572222222
 30
0.0
  0
VERTEX
  5
A1F
  8
DEFAULT
 62
   178
 10
102.7792302777778
 20
107.5371794444444
 30
0.0
  0
VERTEX
  5
A20
  8
DEFAULT
 62
   178
 10
102.8247386111111
 20
107.4765016666666
 30
0.0
  0
VERTEX
  5
A21
  8
DEFAULT
 62
   178
 10
102.8776552777778
 20
107.4232322222222
 30
0.0
  0
VERTEX
  5
A22
  8
DEFAULT
 62
   178
 10
102.9309247222222
 20
107.385485
 30
0.0
  0
VERTEX
  5
A23
  8
DEFAULT
 62
   178
 10
102.9993636111111
 20
107.347385
 30
0.0
  0
VERTEX
  5
A24
  8
DEFAULT
 62
   178
 10
103.0678025
 20
107.3170461111111
 30
0.0
  0
VERTEX
  5
A25
  8
DEFAULT
 62
   178
 10
103.2046802777778
 20
107.2867072222222
 30
0.0
  0
VERTEX
  5
A26
  8
DEFAULT
 62
   178
 10
103.2805275
 20
107.2867072222222
 30
0.0
  0
VERTEX
  5
A27
  8
DEFAULT
 62
   178
 10
103.3563747222222
 20
107.3018766666667
 30
0.0
  0
VERTEX
  5
A28
  8
DEFAULT
 62
   178
 10
103.4248136111111
 20
107.3170461111111
 30
0.0
  0
VERTEX
  5
A29
  8
DEFAULT
 62
   178
 10
103.4928997222222
 20
107.347385
 30
0.0
  0
VERTEX
  5
A2A
  8
DEFAULT
 62
   178
 10
103.5535775
 20
107.385485
 30
0.0
  0
VERTEX
  5
A2B
  8
DEFAULT
 62
   178
 10
103.6146080555556
 20
107.4232322222222
 30
0.0
  0
VERTEX
  5
A2C
  8
DEFAULT
 62
   178
 10
103.6678775
 20
107.4765016666666
 30
0.0
  0
VERTEX
  5
A2D
  8
DEFAULT
 62
   178
 10
103.7133858333333
 20
107.5371794444444
 30
0.0
  0
VERTEX
  5
A2E
  8
DEFAULT
 62
   178
 10
103.7511330555556
 20
107.5978572222222
 30
0.0
  0
VERTEX
  5
A2F
  8
DEFAULT
 62
   178
 10
103.7740636111111
 20
107.6662961111111
 30
0.0
  0
VERTEX
  5
A30
  8
DEFAULT
 62
   178
 10
103.7969941666667
 20
107.734735
 30
0.0
  0
SEQEND
  5
A31
  8
DEFAULT
 62
   178
  0
POLYLINE
  5
A32
  8
DEFAULT
 62
   178
 66
     1
 10
0.0
 20
0.0
 30
0.0
  0
VERTEX
  5
A33
  8
DEFAULT
 62
   178
 10
103.7968883333333
 20
107.9701083333333
 30
0.0
  0
VERTEX
  5
A34
  8
DEFAULT
 62
   178
 10
103.7739577777777
 20
108.0459555555555
 30
0.0
  0
VERTEX
  5
A35
  8
DEFAULT
 62
   178
 10
103.75138
 20
108.1143944444444
 30
0.0
  0
VERTEX
  5
A36
  8
DEFAULT
 62
   178
 10
103.71328
 20
108.1750722222222
 30
0.0
  0
VERTEX
  5
A37
  8
DEFAULT
 62
   178
 10
103.6677716666667
 20
108.2283416666667
 30
0.0
  0
VERTEX
  5
A38
  8
DEFAULT
 62
   178
 10
103.6145022222222
 20
108.2816111111111
 30
0.0
  0
VERTEX
  5
A39
  8
DEFAULT
 62
   178
 10
103.5538244444444
 20
108.3271194444444
 30
0.0
  0
VERTEX
  5
A3A
  8
DEFAULT
 62
   178
 10
103.4931466666667
 20
108.3652194444444
 30
0.0
  0
VERTEX
  5
A3B
  8
DEFAULT
 62
   178
 10
103.4247077777778
 20
108.3877972222222
 30
0.0
  0
VERTEX
  5
A3C
  8
DEFAULT
 62
   178
 10
103.3566216666667
 20
108.4107277777778
 30
0.0
  0
VERTEX
  5
A3D
  8
DEFAULT
 62
   178
 10
103.2804216666667
 20
108.4181361111111
 30
0.0
  0
VERTEX
  5
A3E
  8
DEFAULT
 62
   178
 10
103.2045744444444
 20
108.4181361111111
 30
0.0
  0
VERTEX
  5
A3F
  8
DEFAULT
 62
   178
 10
103.1361355555555
 20
108.4107277777778
 30
0.0
  0
VERTEX
  5
A40
  8
DEFAULT
 62
   178
 10
103.0676966666666
 20
108.3877972222222
 30
0.0
  0
VERTEX
  5
A41
  8
DEFAULT
 62
   178
 10
102.9992577777778
 20
108.3652194444444
 30
0.0
  0
VERTEX
  5
A42
  8
DEFAULT
 62
   178
 10
102.9311716666667
 20
108.3271194444444
 30
0.0
  0
VERTEX
  5
A43
  8
DEFAULT
 62
   178
 10
102.8779022222222
 20
108.2816111111111
 30
0.0
  0
VERTEX
  5
A44
  8
DEFAULT
 62
   178
 10
102.8246327777778
 20
108.2283416666667
 30
0.0
  0
VERTEX
  5
A45
  8
DEFAULT
 62
   178
 10
102.7791244444444
 20
108.1750722222222
 30
0.0
  0
VERTEX
  5
A46
  8
DEFAULT
 62
   178
 10
102.7413772222222
 20
108.1143944444444
 30
0.0
  0
VERTEX
  5
A47
  8
DEFAULT
 62
   178
 10
102.7110383333333
 20
108.0459555555555
 30
0.0
  0
VERTEX
  5
A48
  8
DEFAULT
 62
   178
 10
102.6955161111111
 20
107.9701083333333
 30
0.0
  0
SEQEND
  5
A49
  8
DEFAULT
 62
   178
  0
LINE
  5
A4A
  8
DEFAULT
 62
   178
 10
102.6956219444444
 20
107.9701083333333
 30
0.0
 11
102.6956219444444
 21
107.7348055555556
 31
0.0
  0
LINE
  5
A4B
  8
DEFAULT
 62
   178
 10
103.7968883333333
 20
107.734735
 30
0.0
 11
103.7968883333333
 21
107.9700377777777
 31
0.0
  0
LINE
  5
A4C
  8
DEFAULT
 62
   178
 10
107.1536394444444
 20
107.734735
 30
0.0
 11
108.26242
 21
107.734735
 31
0.0
  0
LINE
  5
A4D
  8
DEFAULT
 62
   178
 10
107.1536394444444
 20
107.9701083333333
 30
0.0
 11
108.26242
 21
107.9701083333333
 31
0.0
  0
LINE
  5
A4E
  8
DEFAULT
 62
   178
 10
102.6956219444444
 20
107.734735
 30
0.0
 11
103.7969941666667
 21
107.734735
 31
0.0
  0
LINE
  5
A4F
  8
DEFAULT
 62
   178
 10
102.6956219444444
 20
107.9701083333333
 30
0.0
 11
103.7969941666667
 21
107.9701083333333
 31
0.0
  0
LINE
  5
A50
  8
DEFAULT
 62
   178
 10
100.2503075
 20
155.5107591666666
 30
0.0
 11
93.17993527777779
 21
155.5107591666666
 31
0.0
  0
POLYLINE
  5
A51
  8
DEFAULT
 62
   178
 66
     1
 10
0.0
 20
0.0
 30
0.0
  0
VERTEX
  5
A52
  8
DEFAULT
 62
   178
 10
99.4529591666667
 20
107.8561963888889
 30
0.0
  0
VERTEX
  5
A53
  8
DEFAULT
 62
   178
 10
99.44555083333336
 20
107.9323963888889
 30
0.0
  0
VERTEX
  5
A54
  8
DEFAULT
 62
   178
 10
99.43002861111111
 20
108.0156519444444
 30
0.0
  0
VERTEX
  5
A55
  8
DEFAULT
 62
   178
 10
99.40745083333333
 20
108.0918519444444
 30
0.0
  0
VERTEX
  5
A56
  8
DEFAULT
 62
   178
 10
99.37711194444445
 20
108.1676991666667
 30
0.0
  0
VERTEX
  5
A57
  8
DEFAULT
 62
   178
 10
99.33125083333331
 20
108.2361380555555
 30
0.0
  0
VERTEX
  5
A58
  8
DEFAULT
 62
   178
 10
99.2857425
 20
108.2968158333333
 30
0.0
  0
VERTEX
  5
A59
  8
DEFAULT
 62
   178
 10
99.22506472222221
 20
108.3574936111111
 30
0.0
  0
VERTEX
  5
A5A
  8
DEFAULT
 62
   178
 10
99.16438694444444
 20
108.4030019444444
 30
0.0
  0
VERTEX
  5
A5B
  8
DEFAULT
 62
   178
 10
99.09594805555555
 20
108.4485102777778
 30
0.0
  0
VERTEX
  5
A5C
  8
DEFAULT
 62
   178
 10
99.01974805555555
 20
108.4788491666667
 30
0.0
  0
VERTEX
  5
A5D
  8
DEFAULT
 62
   178
 10
98.94390083333333
 20
108.5017797222222
 30
0.0
  0
VERTEX
  5
A5E
  8
DEFAULT
 62
   178
 10
98.86064527777778
 20
108.5169491666667
 30
0.0
  0
VERTEX
  5
A5F
  8
DEFAULT
 62
   178
 10
98.78444527777778
 20
108.5247102777778
 30
0.0
  0
VERTEX
  5
A60
  8
DEFAULT
 62
   178
 10
98.70118972222222
 20
108.5169491666667
 30
0.0
  0
VERTEX
  5
A61
  8
DEFAULT
 62
   178
 10
98.62498972222222
 20
108.5017797222222
 30
0.0
  0
VERTEX
  5
A62
  8
DEFAULT
 62
   178
 10
98.54914249999999
 20
108.4788491666667
 30
0.0
  0
VERTEX
  5
A63
  8
DEFAULT
 62
   178
 10
98.47329527777778
 20
108.4485102777778
 30
0.0
  0
VERTEX
  5
A64
  8
DEFAULT
 62
   178
 10
98.40485638888889
 20
108.4030019444444
 30
0.0
  0
VERTEX
  5
A65
  8
DEFAULT
 62
   178
 10
98.33641749999998
 20
108.3574936111111
 30
0.0
  0
VERTEX
  5
A66
  8
DEFAULT
 62
   178
 10
98.28350083333333
 20
108.2968158333333
 30
0.0
  0
VERTEX
  5
A67
  8
DEFAULT
 62
   178
 10
98.23023138888888
 20
108.2361380555555
 30
0.0
  0
VERTEX
  5
A68
  8
DEFAULT
 62
   178
 10
98.19213138888888
 20
108.1676991666667
 30
0.0
  0
VERTEX
  5
A69
  8
DEFAULT
 62
   178
 10
98.15438416666667
 20
108.0918519444444
 30
0.0
  0
VERTEX
  5
A6A
  8
DEFAULT
 62
   178
 10
98.13145361111111
 20
108.0156519444444
 30
0.0
  0
VERTEX
  5
A6B
  8
DEFAULT
 62
   178
 10
98.11628416666667
 20
107.9323963888889
 30
0.0
  0
VERTEX
  5
A6C
  8
DEFAULT
 62
   178
 10
98.11628416666667
 20
107.8561963888889
 30
0.0
  0
SEQEND
  5
A6D
  8
DEFAULT
 62
   178
  0
POLYLINE
  5
A6E
  8
DEFAULT
 62
   178
 66
     1
 10
0.0
 20
0.0
 30
0.0
  0
VERTEX
  5
A6F
  8
DEFAULT
 62
   178
 10
98.11631944444443
 20
107.8561963888889
 30
0.0
  0
VERTEX
  5
A70
  8
DEFAULT
 62
   178
 10
98.11631944444443
 20
107.7725880555555
 30
0.0
  0
VERTEX
  5
A71
  8
DEFAULT
 62
   178
 10
98.13148888888888
 20
107.6967408333333
 30
0.0
  0
VERTEX
  5
A72
  8
DEFAULT
 62
   178
 10
98.15441944444444
 20
107.6131325
 30
0.0
  0
VERTEX
  5
A73
  8
DEFAULT
 62
   178
 10
98.19216666666665
 20
107.5446936111111
 30
0.0
  0
VERTEX
  5
A74
  8
DEFAULT
 62
   178
 10
98.23026666666665
 20
107.4766075
 30
0.0
  0
VERTEX
  5
A75
  8
DEFAULT
 62
   178
 10
98.28318333333333
 20
107.4081686111111
 30
0.0
  0
VERTEX
  5
A76
  8
DEFAULT
 62
   178
 10
98.33645277777778
 20
107.3548991666667
 30
0.0
  0
VERTEX
  5
A77
  8
DEFAULT
 62
   178
 10
98.40489166666666
 20
107.3019825
 30
0.0
  0
VERTEX
  5
A78
  8
DEFAULT
 62
   178
 10
98.47333055555555
 20
107.2638825
 30
0.0
  0
VERTEX
  5
A79
  8
DEFAULT
 62
   178
 10
98.54917777777776
 20
107.2261352777778
 30
0.0
  0
VERTEX
  5
A7A
  8
DEFAULT
 62
   178
 10
98.625025
 20
107.2032047222222
 30
0.0
  0
VERTEX
  5
A7B
  8
DEFAULT
 62
   178
 10
98.701225
 20
107.1880352777778
 30
0.0
  0
VERTEX
  5
A7C
  8
DEFAULT
 62
   178
 10
98.86068055555555
 20
107.1880352777778
 30
0.0
  0
VERTEX
  5
A7D
  8
DEFAULT
 62
   178
 10
98.9439361111111
 20
107.2032047222222
 30
0.0
  0
VERTEX
  5
A7E
  8
DEFAULT
 62
   178
 10
99.01978333333332
 20
107.2261352777778
 30
0.0
  0
VERTEX
  5
A7F
  8
DEFAULT
 62
   178
 10
99.09598333333332
 20
107.2638825
 30
0.0
  0
VERTEX
  5
A80
  8
DEFAULT
 62
   178
 10
99.16442222222221
 20
107.3019825
 30
0.0
  0
VERTEX
  5
A81
  8
DEFAULT
 62
   178
 10
99.22509999999998
 20
107.3548991666667
 30
0.0
  0
VERTEX
  5
A82
  8
DEFAULT
 62
   178
 10
99.28577777777777
 20
107.4081686111111
 30
0.0
  0
VERTEX
  5
A83
  8
DEFAULT
 62
   178
 10
99.33128611111111
 20
107.4766075
 30
0.0
  0
VERTEX
  5
A84
  8
DEFAULT
 62
   178
 10
99.37679444444443
 20
107.5446936111111
 30
0.0
  0
VERTEX
  5
A85
  8
DEFAULT
 62
   178
 10
99.40748611111111
 20
107.6131325
 30
0.0
  0
VERTEX
  5
A86
  8
DEFAULT
 62
   178
 10
99.43006388888888
 20
107.6967408333333
 30
0.0
  0
VERTEX
  5
A87
  8
DEFAULT
 62
   178
 10
99.44523333333332
 20
107.7725880555555
 30
0.0
  0
VERTEX
  5
A88
  8
DEFAULT
 62
   178
 10
99.45299444444443
 20
107.8561963888889
 30
0.0
  0
SEQEND
  5
A89
  8
DEFAULT
 62
   178
  0
POLYLINE
  5
A8A
  8
DEFAULT
 62
   178
 66
     1
 10
0.0
 20
0.0
 30
0.0
  0
VERTEX
  5
A8B
  8
DEFAULT
 62
   178
 10
99.68833249999999
 20
107.8561963888889
 30
0.0
  0
VERTEX
  5
A8C
  8
DEFAULT
 62
   178
 10
99.68833249999999
 20
107.9472130555555
 30
0.0
  0
VERTEX
  5
A8D
  8
DEFAULT
 62
   178
 10
99.67316305555555
 20
108.0459908333333
 30
0.0
  0
VERTEX
  5
A8E
  8
DEFAULT
 62
   178
 10
99.64282416666664
 20
108.1373602777778
 30
0.0
  0
VERTEX
  5
A8F
  8
DEFAULT
 62
   178
 10
99.61248527777778
 20
108.2206158333333
 30
0.0
  0
VERTEX
  5
A90
  8
DEFAULT
 62
   178
 10
99.56697694444443
 20
108.3042241666667
 30
0.0
  0
VERTEX
  5
A91
  8
DEFAULT
 62
   178
 10
99.51370749999998
 20
108.3878325
 30
0.0
  0
VERTEX
  5
A92
  8
DEFAULT
 62
   178
 10
99.46043805555554
 20
108.4640325
 30
0.0
  0
VERTEX
  5
A93
  8
DEFAULT
 62
   178
 10
99.39235194444443
 20
108.5321186111111
 30
0.0
  0
VERTEX
  5
A94
  8
DEFAULT
 62
   178
 10
99.31615194444443
 20
108.5853880555556
 30
0.0
  0
VERTEX
  5
A95
  8
DEFAULT
 62
   178
 10
99.24030472222222
 20
108.6383047222222
 30
0.0
  0
VERTEX
  5
A96
  8
DEFAULT
 62
   178
 10
99.14928805555553
 20
108.6841658333333
 30
0.0
  0
VERTEX
  5
A97
  8
DEFAULT
 62
   178
 10
99.06567972222221
 20
108.7145047222222
 30
0.0
  0
VERTEX
  5
A98
  8
DEFAULT
 62
   178
 10
98.97466305555554
 20
108.7448436111111
 30
0.0
  0
VERTEX
  5
A99
  8
DEFAULT
 62
   178
 10
98.87553249999999
 20
108.7600130555556
 30
0.0
  0
VERTEX
  5
A9A
  8
DEFAULT
 62
   178
 10
98.68573805555555
 20
108.7600130555556
 30
0.0
  0
VERTEX
  5
A9B
  8
DEFAULT
 62
   178
 10
98.59472138888887
 20
108.7448436111111
 30
0.0
  0
VERTEX
  5
A9C
  8
DEFAULT
 62
   178
 10
98.41268805555555
 20
108.6841658333333
 30
0.0
  0
VERTEX
  5
A9D
  8
DEFAULT
 62
   178
 10
98.3290797222222
 20
108.6383047222222
 30
0.0
  0
VERTEX
  5
A9E
  8
DEFAULT
 62
   178
 10
98.2528797222222
 20
108.5853880555556
 30
0.0
  0
VERTEX
  5
A9F
  8
DEFAULT
 62
   178
 10
98.1770325
 20
108.5321186111111
 30
0.0
  0
VERTEX
  5
AA0
  8
DEFAULT
 62
   178
 10
98.10859361111109
 20
108.4640325
 30
0.0
  0
VERTEX
  5
AA1
  8
DEFAULT
 62
   178
 10
98.04791583333333
 20
108.3878325
 30
0.0
  0
VERTEX
  5
AA2
  8
DEFAULT
 62
   178
 10
97.99499916666664
 20
108.3042241666667
 30
0.0
  0
VERTEX
  5
AA3
  8
DEFAULT
 62
   178
 10
97.95689916666664
 20
108.2206158333333
 30
0.0
  0
VERTEX
  5
AA4
  8
DEFAULT
 62
   178
 10
97.91879916666664
 20
108.1373602777778
 30
0.0
  0
VERTEX
  5
AA5
  8
DEFAULT
 62
   178
 10
97.8958686111111
 20
108.0459908333333
 30
0.0
  0
VERTEX
  5
AA6
  8
DEFAULT
 62
   178
 10
97.88105194444444
 20
107.9472130555555
 30
0.0
  0
VERTEX
  5
AA7
  8
DEFAULT
 62
   178
 10
97.87329083333333
 20
107.8561963888889
 30
0.0
  0
SEQEND
  5
AA8
  8
DEFAULT
 62
   178
  0
POLYLINE
  5
AA9
  8
DEFAULT
 62
   178
 66
     1
 10
0.0
 20
0.0
 30
0.0
  0
VERTEX
  5
AAA
  8
DEFAULT
 62
   178
 10
97.87325555555556
 20
107.8561963888889
 30
0.0
  0
VERTEX
  5
AAB
  8
DEFAULT
 62
   178
 10
97.88101666666667
 20
107.7574186111111
 30
0.0
  0
VERTEX
  5
AAC
  8
DEFAULT
 62
   178
 10
97.89583333333333
 20
107.6664019444444
 30
0.0
  0
VERTEX
  5
AAD
  8
DEFAULT
 62
   178
 10
97.91876388888888
 20
107.5753852777778
 30
0.0
  0
VERTEX
  5
AAE
  8
DEFAULT
 62
   178
 10
97.95686388888888
 20
107.4840158333333
 30
0.0
  0
VERTEX
  5
AAF
  8
DEFAULT
 62
   178
 10
97.99496388888888
 20
107.4007602777778
 30
0.0
  0
VERTEX
  5
AB0
  8
DEFAULT
 62
   178
 10
98.04788055555554
 20
107.3171519444444
 30
0.0
  0
VERTEX
  5
AB1
  8
DEFAULT
 62
   178
 10
98.1089111111111
 20
107.2487130555556
 30
0.0
  0
VERTEX
  5
AB2
  8
DEFAULT
 62
   178
 10
98.1769972222222
 20
107.1802741666667
 30
0.0
  0
VERTEX
  5
AB3
  8
DEFAULT
 62
   178
 10
98.2531972222222
 20
107.1195963888889
 30
0.0
  0
VERTEX
  5
AB4
  8
DEFAULT
 62
   178
 10
98.32904444444442
 20
107.0663269444444
 30
0.0
  0
VERTEX
  5
AB5
  8
DEFAULT
 62
   178
 10
98.41265277777777
 20
107.0285797222222
 30
0.0
  0
VERTEX
  5
AB6
  8
DEFAULT
 62
   178
 10
98.50366944444443
 20
106.9904797222222
 30
0.0
  0
VERTEX
  5
AB7
  8
DEFAULT
 62
   178
 10
98.5946861111111
 20
106.9675491666667
 30
0.0
  0
VERTEX
  5
AB8
  8
DEFAULT
 62
   178
 10
98.68570277777776
 20
106.9523797222222
 30
0.0
  0
VERTEX
  5
AB9
  8
DEFAULT
 62
   178
 10
98.78448055555555
 20
106.9449713888889
 30
0.0
  0
VERTEX
  5
ABA
  8
DEFAULT
 62
   178
 10
98.87549722222221
 20
106.9523797222222
 30
0.0
  0
VERTEX
  5
ABB
  8
DEFAULT
 62
   178
 10
98.97462777777777
 20
106.9675491666667
 30
0.0
  0
VERTEX
  5
ABC
  8
DEFAULT
 62
   178
 10
99.06564444444443
 20
106.9904797222222
 30
0.0
  0
VERTEX
  5
ABD
  8
DEFAULT
 62
   178
 10
99.14925277777776
 20
107.0285797222222
 30
0.0
  0
VERTEX
  5
ABE
  8
DEFAULT
 62
   178
 10
99.24026944444442
 20
107.0663269444444
 30
0.0
  0
VERTEX
  5
ABF
  8
DEFAULT
 62
   178
 10
99.31611666666664
 20
107.1195963888889
 30
0.0
  0
VERTEX
  5
AC0
  8
DEFAULT
 62
   178
 10
99.39231666666664
 20
107.1802741666667
 30
0.0
  0
VERTEX
  5
AC1
  8
DEFAULT
 62
   178
 10
99.46040277777777
 20
107.2487130555556
 30
0.0
  0
VERTEX
  5
AC2
  8
DEFAULT
 62
   178
 10
99.5136722222222
 20
107.3171519444444
 30
0.0
  0
VERTEX
  5
AC3
  8
DEFAULT
 62
   178
 10
99.56694166666665
 20
107.4007602777778
 30
0.0
  0
VERTEX
  5
AC4
  8
DEFAULT
 62
   178
 10
99.61244999999998
 20
107.4840158333333
 30
0.0
  0
VERTEX
  5
AC5
  8
DEFAULT
 62
   178
 10
99.64278888888887
 20
107.5753852777778
 30
0.0
  0
VERTEX
  5
AC6
  8
DEFAULT
 62
   178
 10
99.67312777777775
 20
107.6664019444444
 30
0.0
  0
VERTEX
  5
AC7
  8
DEFAULT
 62
   178
 10
99.6882972222222
 20
107.7574186111111
 30
0.0
  0
VERTEX
  5
AC8
  8
DEFAULT
 62
   178
 10
99.6882972222222
 20
107.8561963888889
 30
0.0
  0
SEQEND
  5
AC9
  8
DEFAULT
 62
   178
  0
POLYLINE
  5
ACA
  8
DEFAULT
 62
   178
 66
     1
 10
0.0
 20
0.0
 30
0.0
  0
VERTEX
  5
ACB
  8
DEFAULT
 62
   178
 10
98.23009027777776
 20
107.734735
 30
0.0
  0
VERTEX
  5
ACC
  8
DEFAULT
 62
   178
 10
98.25302083333334
 20
107.6662961111111
 30
0.0
  0
VERTEX
  5
ACD
  8
DEFAULT
 62
   178
 10
98.2755986111111
 20
107.5978572222222
 30
0.0
  0
VERTEX
  5
ACE
  8
DEFAULT
 62
   178
 10
98.3136986111111
 20
107.5371794444444
 30
0.0
  0
VERTEX
  5
ACF
  8
DEFAULT
 62
   178
 10
98.35920694444442
 20
107.4765016666666
 30
0.0
  0
VERTEX
  5
AD0
  8
DEFAULT
 62
   178
 10
98.41247638888888
 20
107.4232322222222
 30
0.0
  0
VERTEX
  5
AD1
  8
DEFAULT
 62
   178
 10
98.47315416666666
 20
107.385485
 30
0.0
  0
VERTEX
  5
AD2
  8
DEFAULT
 62
   178
 10
98.53383194444443
 20
107.347385
 30
0.0
  0
VERTEX
  5
AD3
  8
DEFAULT
 62
   178
 10
98.60227083333332
 20
107.3170461111111
 30
0.0
  0
VERTEX
  5
AD4
  8
DEFAULT
 62
   178
 10
98.67070972222221
 20
107.3018766666667
 30
0.0
  0
VERTEX
  5
AD5
  8
DEFAULT
 62
   178
 10
98.74655694444444
 20
107.2867072222222
 30
0.0
  0
VERTEX
  5
AD6
  8
DEFAULT
 62
   178
 10
98.82275694444444
 20
107.2867072222222
 30
0.0
  0
VERTEX
  5
AD7
  8
DEFAULT
 62
   178
 10
98.89084305555554
 20
107.3018766666667
 30
0.0
  0
VERTEX
  5
AD8
  8
DEFAULT
 62
   178
 10
98.95928194444444
 20
107.3170461111111
 30
0.0
  0
VERTEX
  5
AD9
  8
DEFAULT
 62
   178
 10
99.02772083333333
 20
107.347385
 30
0.0
  0
VERTEX
  5
ADA
  8
DEFAULT
 62
   178
 10
99.09580694444443
 20
107.385485
 30
0.0
  0
VERTEX
  5
ADB
  8
DEFAULT
 62
   178
 10
99.14907638888889
 20
107.4232322222222
 30
0.0
  0
VERTEX
  5
ADC
  8
DEFAULT
 62
   178
 10
99.20234583333331
 20
107.4765016666666
 30
0.0
  0
VERTEX
  5
ADD
  8
DEFAULT
 62
   178
 10
99.24785416666666
 20
107.5371794444444
 30
0.0
  0
VERTEX
  5
ADE
  8
DEFAULT
 62
   178
 10
99.28560138888888
 20
107.5978572222222
 30
0.0
  0
VERTEX
  5
ADF
  8
DEFAULT
 62
   178
 10
99.31629305555555
 20
107.6662961111111
 30
0.0
  0
VERTEX
  5
AE0
  8
DEFAULT
 62
   178
 10
99.3392236111111
 20
107.734735
 30
0.0
  0
SEQEND
  5
AE1
  8
DEFAULT
 62
   178
  0
LINE
  5
AE2
  8
DEFAULT
 62
   178
 10
98.23009027777776
 20
107.9701083333333
 30
0.0
 11
98.23009027777776
 21
107.7348055555556
 31
0.0
  0
LINE
  5
AE3
  8
DEFAULT
 62
   178
 10
99.33908249999999
 20
107.734735
 30
0.0
 11
99.33908249999999
 21
107.9700377777777
 31
0.0
  0
POLYLINE
  5
AE4
  8
DEFAULT
 62
   178
 66
     1
 10
0.0
 20
0.0
 30
0.0
  0
VERTEX
  5
AE5
  8
DEFAULT
 62
   178
 10
99.33908249999996
 20
107.9701083333333
 30
0.0
  0
VERTEX
  5
AE6
  8
DEFAULT
 62
   178
 10
99.31615194444441
 20
108.0459555555555
 30
0.0
  0
VERTEX
  5
AE7
  8
DEFAULT
 62
   178
 10
99.28581305555554
 20
108.1143944444444
 30
0.0
  0
VERTEX
  5
AE8
  8
DEFAULT
 62
   178
 10
99.24771305555554
 20
108.1750722222222
 30
0.0
  0
VERTEX
  5
AE9
  8
DEFAULT
 62
   178
 10
99.20220472222222
 20
108.2283416666667
 30
0.0
  0
VERTEX
  5
AEA
  8
DEFAULT
 62
   178
 10
99.14928805555553
 20
108.2816111111111
 30
0.0
  0
VERTEX
  5
AEB
  8
DEFAULT
 62
   178
 10
99.09601861111109
 20
108.3271194444444
 30
0.0
  0
VERTEX
  5
AEC
  8
DEFAULT
 62
   178
 10
99.02757972222221
 20
108.3652194444444
 30
0.0
  0
VERTEX
  5
AED
  8
DEFAULT
 62
   178
 10
98.95914083333332
 20
108.3877972222222
 30
0.0
  0
VERTEX
  5
AEE
  8
DEFAULT
 62
   178
 10
98.89105472222221
 20
108.4107277777778
 30
0.0
  0
VERTEX
  5
AEF
  8
DEFAULT
 62
   178
 10
98.82261583333332
 20
108.4181361111111
 30
0.0
  0
VERTEX
  5
AF0
  8
DEFAULT
 62
   178
 10
98.74676861111111
 20
108.4181361111111
 30
0.0
  0
VERTEX
  5
AF1
  8
DEFAULT
 62
   178
 10
98.67056861111111
 20
108.4107277777778
 30
0.0
  0
VERTEX
  5
AF2
  8
DEFAULT
 62
   178
 10
98.60248249999998
 20
108.3877972222222
 30
0.0
  0
VERTEX
  5
AF3
  8
DEFAULT
 62
   178
 10
98.5340436111111
 20
108.3652194444444
 30
0.0
  0
VERTEX
  5
AF4
  8
DEFAULT
 62
   178
 10
98.47336583333332
 20
108.3271194444444
 30
0.0
  0
VERTEX
  5
AF5
  8
DEFAULT
 62
   178
 10
98.41268805555555
 20
108.2816111111111
 30
0.0
  0
VERTEX
  5
AF6
  8
DEFAULT
 62
   178
 10
98.3594186111111
 20
108.2283416666667
 30
0.0
  0
VERTEX
  5
AF7
  8
DEFAULT
 62
   178
 10
98.31355749999999
 20
108.1750722222222
 30
0.0
  0
VERTEX
  5
AF8
  8
DEFAULT
 62
   178
 10
98.27581027777777
 20
108.1143944444444
 30
0.0
  0
VERTEX
  5
AF9
  8
DEFAULT
 62
   178
 10
98.2532325
 20
108.0459555555555
 30
0.0
  0
VERTEX
  5
AFA
  8
DEFAULT
 62
   178
 10
98.22994916666666
 20
107.9701083333333
 30
0.0
  0
SEQEND
  5
AFB
  8
DEFAULT
 62
   178
  0
LINE
  5
AFC
  8
DEFAULT
 62
   178
 10
98.23009027777776
 20
107.734735
 30
0.0
 11
99.3392236111111
 21
107.734735
 31
0.0
  0
LINE
  5
AFD
  8
DEFAULT
 62
   178
 10
98.23009027777776
 20
107.9701083333333
 30
0.0
 11
99.3392236111111
 21
107.9701083333333
 31
0.0
  0
ENDSEC
  0
EOF
