  0
SECTION
  2
HEADER
  9
$ACADVER
  1
AC1021
  9
$ACADMAINTVER
 70
    25
  9
$DWGCODEPAGE
  3
ANSI_1252
  9
$INSBASE
 10
0.0
 20
0.0
 30
0.0
  9
$EXTMIN
 10
53.37923209112768
 20
128.67791636928
 30
-0.0011999267567401
  9
$EXTMAX
 10
199.5417693192791
 20
362.5351943855496
 30
0.0
  9
$LIMMIN
 10
0.0
 20
0.0
  9
$LIMMAX
 10
297.0
 20
210.0
  9
$ORTHOMODE
 70
     0
  9
$REGENMODE
 70
     1
  9
$FILLMODE
 70
     1
  9
$QTEXTMODE
 70
     0
  9
$MIRRTEXT
 70
     0
  9
$LTSCALE
 40
1.0
  9
$ATTMODE
 70
     1
  9
$TEXTSIZE
 40
5.0
  9
$TRACEWID
 40
1.0
  9
$TEXTSTYLE
  7
Standard
  9
$CLAYER
  8
0
  9
$CELTYPE
  6
ByLayer
  9
$CECOLOR
 62
     7
  9
$CELTSCALE
 40
1.0
  9
$DISPSILH
 70
     0
  9
$DIMSCALE
 40
1.0
  9
$DIMASZ
 40
3.0
  9
$DIMEXO
 40
1.0
  9
$DIMDLI
 40
7.5
  9
$DIMRND
 40
0.01
  9
$DIMDLE
 40
0.0
  9
$DIMEXE
 40
2.0
  9
$DIMTP
 40
0.0
  9
$DIMTM
 40
0.0
  9
$DIMTXT
 40
3.0
  9
$DIMCEN
 40
0.0
  9
$DIMTSZ
 40
0.0
  9
$DIMTOL
 70
     0
  9
$DIMLIM
 70
     0
  9
$DIMTIH
 70
     1
  9
$DIMTOH
 70
     0
  9
$DIMSE1
 70
     0
  9
$DIMSE2
 70
     0
  9
$DIMTAD
 70
     1
  9
$DIMZIN
 70
     1
  9
$DIMBLK
  1

  9
$DIMASO
 70
     1
  9
$DIMSHO
 70
     1
  9
$DIMPOST
  1

  9
$DIMAPOST
  1

  9
$DIMALT
 70
     0
  9
$DIMALTD
 70
     2
  9
$DIMALTF
 40
1.0
  9
$DIMLFAC
 40
1.0
  9
$DIMTOFL
 70
     1
  9
$DIMTVP
 40
0.0
  9
$DIMTIX
 70
     0
  9
$DIMSOXD
 70
     0
  9
$DIMSAH
 70
     0
  9
$DIMBLK1
  1

  9
$DIMBLK2
  1

  9
$DIMSTYLE
  2
Standard
  9
$DIMCLRD
 70
     7
  9
$DIMCLRE
 70
     7
  9
$DIMCLRT
 70
     7
  9
$DIMTFAC
 40
1.0
  9
$DIMGAP
 40
2.0
  9
$DIMJUST
 70
     0
  9
$DIMSD1
 70
     0
  9
$DIMSD2
 70
     0
  9
$DIMTOLJ
 70
     1
  9
$DIMTZIN
 70
     0
  9
$DIMALTZ
 70
     0
  9
$DIMALTTZ
 70
     0
  9
$DIMUPT
 70
     0
  9
$DIMDEC
 70
     2
  9
$DIMTDEC
 70
     3
  9
$DIMALTU
 70
     2
  9
$DIMALTTD
 70
     2
  9
$DIMTXSTY
  7
Standard
  9
$DIMAUNIT
 70
     0
  9
$DIMADEC
 70
     0
  9
$DIMALTRND
 40
0.01
  9
$DIMAZIN
 70
     0
  9
$DIMDSEP
 70
     0
  9
$DIMATFIT
 70
     3
  9
$DIMFRAC
 70
     2
  9
$DIMLDRBLK
  1

  9
$DIMLUNIT
 70
     2
  9
$DIMLWD
 70
    -2
  9
$DIMLWE
 70
    -2
  9
$DIMTMOVE
 70
     0
  9
$DIMFXL
 40
1.0
  9
$DIMFXLON
 70
     0
  9
$DIMJOGANG
 40
0.7853981633974483
  9
$DIMTFILL
 70
     0
  9
$DIMTFILLCLR
 70
     7
  9
$DIMARCSYM
 70
     0
  9
$DIMLTYPE
  6
ByBlock
  9
$DIMLTEX1
  6
ByBlock
  9
$DIMLTEX2
  6
ByBlock
  9
$LUNITS
 70
     2
  9
$LUPREC
 70
     2
  9
$SKETCHINC
 40
1.0
  9
$FILLETRAD
 40
3.0
  9
$AUNITS
 70
     0
  9
$AUPREC
 70
     2
  9
$MENU
  1
.
  9
$ELEVATION
 40
0.0
  9
$PELEVATION
 40
0.0
  9
$THICKNESS
 40
0.0
  9
$LIMCHECK
 70
     0
  9
$CHAMFERA
 40
0.5
  9
$CHAMFERB
 40
0.5
  9
$CHAMFERC
 40
1.0
  9
$CHAMFERD
 40
0.0
  9
$SKPOLY
 70
     0
  9
$TDCREATE
 40
2457848.784057084
  9
$TDUCREATE
 40
2457848.70072375
  9
$TDUPDATE
 40
2457848.784057986
  9
$TDUUPDATE
 40
2457848.700724653
  9
$TDINDWG
 40
0.0
  9
$TDUSRTIMER
 40
0.0
  9
$USRTIMER
 70
     1
  9
$ANGBASE
 50
0.0
  9
$ANGDIR
 70
     0
  9
$PDMODE
 70
     0
  9
$PDSIZE
 40
0.0
  9
$PLINEWID
 40
0.0
  9
$SPLFRAME
 70
     0
  9
$SPLINETYPE
 70
     5
  9
$SPLINESEGS
 70
    20
  9
$HANDSEED
  5
433
  9
$SURFTAB1
 70
     6
  9
$SURFTAB2
 70
     6
  9
$SURFTYPE
 70
     6
  9
$SURFU
 70
     6
  9
$SURFV
 70
     6
  9
$UCSBASE
  2

  9
$UCSNAME
  2

  9
$UCSORG
 10
0.0
 20
0.0
 30
0.0
  9
$UCSXDIR
 10
1.0
 20
0.0
 30
0.0
  9
$UCSYDIR
 10
0.0
 20
1.0
 30
0.0
  9
$UCSORTHOREF
  2

  9
$UCSORTHOVIEW
 70
     0
  9
$UCSORGTOP
 10
0.0
 20
0.0
 30
0.0
  9
$UCSORGBOTTOM
 10
0.0
 20
0.0
 30
0.0
  9
$UCSORGLEFT
 10
0.0
 20
0.0
 30
0.0
  9
$UCSORGRIGHT
 10
0.0
 20
0.0
 30
0.0
  9
$UCSORGFRONT
 10
0.0
 20
0.0
 30
0.0
  9
$UCSORGBACK
 10
0.0
 20
0.0
 30
0.0
  9
$PUCSBASE
  2

  9
$PUCSNAME
  2

  9
$PUCSORG
 10
0.0
 20
0.0
 30
0.0
  9
$PUCSXDIR
 10
1.0
 20
0.0
 30
0.0
  9
$PUCSYDIR
 10
0.0
 20
1.0
 30
0.0
  9
$PUCSORTHOREF
  2

  9
$PUCSORTHOVIEW
 70
     0
  9
$PUCSORGTOP
 10
0.0
 20
0.0
 30
0.0
  9
$PUCSORGBOTTOM
 10
0.0
 20
0.0
 30
0.0
  9
$PUCSORGLEFT
 10
0.0
 20
0.0
 30
0.0
  9
$PUCSORGRIGHT
 10
0.0
 20
0.0
 30
0.0
  9
$PUCSORGFRONT
 10
0.0
 20
0.0
 30
0.0
  9
$PUCSORGBACK
 10
0.0
 20
0.0
 30
0.0
  9
$USERI1
 70
     0
  9
$USERI2
 70
     0
  9
$USERI3
 70
     0
  9
$USERI4
 70
     0
  9
$USERI5
 70
     0
  9
$USERR1
 40
0.0
  9
$USERR2
 40
0.0
  9
$USERR3
 40
0.0
  9
$USERR4
 40
0.0
  9
$USERR5
 40
0.0
  9
$WORLDVIEW
 70
     1
  9
$SHADEDGE
 70
     3
  9
$SHADEDIF
 70
    70
  9
$TILEMODE
 70
     1
  9
$MAXACTVP
 70
    64
  9
$PINSBASE
 10
0.0
 20
0.0
 30
0.0
  9
$PLIMCHECK
 70
     0
  9
$PEXTMIN
 10
0.0
 20
0.0
 30
0.0
  9
$PEXTMAX
 10
0.0
 20
0.0
 30
0.0
  9
$PLIMMIN
 10
0.0
 20
0.0
  9
$PLIMMAX
 10
0.0
 20
0.0
  9
$UNITMODE
 70
     0
  9
$VISRETAIN
 70
     1
  9
$PLINEGEN
 70
     0
  9
$PSLTSCALE
 70
     1
  9
$TREEDEPTH
 70
  3020
  9
$CMLSTYLE
  2
Standard
  9
$CMLJUST
 70
     0
  9
$CMLSCALE
 40
1.0
  9
$PROXYGRAPHICS
 70
     1
  9
$MEASUREMENT
 70
     1
  9
$CELWEIGHT
370
    -1
  9
$ENDCAPS
280
     0
  9
$JOINSTYLE
280
     0
  9
$LWDISPLAY
290
     0
  9
$INSUNITS
 70
     1
  9
$HYPERLINKBASE
  1

  9
$STYLESHEET
  1

  9
$XEDIT
290
     1
  9
$CEPSNTYPE
380
     0
  9
$PSTYLEMODE
290
     1
  9
$FINGERPRINTGUID
  2
{C398E415-2D37-435E-909D-8755877B2EDB}
  9
$VERSIONGUID
  2
{FAEB1C32-E019-11D5-929B-00C0DF256EC4}
  9
$EXTNAMES
290
     1
  9
$PSVPSCALE
 40
0.0
  9
$OLESTARTUP
290
     0
  9
$SORTENTS
280
   127
  9
$INDEXCTL
280
     0
  9
$HIDETEXT
280
     1
  9
$XCLIPFRAME
290
     0
  9
$HALOGAP
280
     0
  9
$OBSCOLOR
 70
   257
  9
$OBSLTYPE
280
     0
  9
$INTERSECTIONDISPLAY
280
     0
  9
$INTERSECTIONCOLOR
 70
   257
  9
$DIMASSOC
280
     2
  9
$PROJECTNAME
  1

  9
$CAMERADISPLAY
290
     0
  9
$LENSLENGTH
 40
50.0
  9
$CAMERAHEIGHT
 40
0.0
  9
$STEPSPERSEC
 40
2.0
  9
$STEPSIZE
 40
6.0
  9
$3DDWFPREC
 40
2.0
  9
$PSOLWIDTH
 40
0.25
  9
$PSOLHEIGHT
 40
4.0
  9
$LOFTANG1
 40
1.570796326794897
  9
$LOFTANG2
 40
1.570796326794897
  9
$LOFTMAG1
 40
0.0
  9
$LOFTMAG2
 40
0.0
  9
$LOFTPARAM
 70
     7
  9
$LOFTNORMALS
280
     1
  9
$LATITUDE
 40
37.795
  9
$LONGITUDE
 40
-122.394
  9
$NORTHDIRECTION
 40
0.0
  9
$TIMEZONE
 70
 -8000
  9
$LIGHTGLYPHDISPLAY
280
     1
  9
$TILEMODELIGHTSYNCH
280
     1
  9
$SOLIDHIST
280
     1
  9
$SHOWHIST
280
     1
  9
$DWFFRAME
280
     2
  9
$DGNFRAME
280
     2
  9
$REALWORLDSCALE
290
     1
  9
$INTERFERECOLOR
 62
   256
  9
$CSHADOW
280
     0
  9
$SHADOWPLANELOCATION
 40
0.0
  0
ENDSEC
  0
SECTION
  2
CLASSES
  0
CLASS
  1
ACDBDICTIONARYWDFLT
  2
AcDbDictionaryWithDefault
  3
ObjectDBX Classes
 90
        0
 91
        4
280
     0
281
     0
  0
CLASS
  1
VISUALSTYLE
  2
AcDbVisualStyle
  3
ObjectDBX Classes
 90
     4095
 91
        4
280
     0
281
     0
  0
CLASS
  1
MATERIAL
  2
AcDbMaterial
  3
ObjectDBX Classes
 90
     1153
 91
        4
280
     0
281
     0
  0
CLASS
  1
AEC_VARS_DWG_SETUP
  2
AecDbVarsDwgSetup
  3
AecBase60
 90
      129
 91
        4
280
     0
281
     0
  0
CLASS
  1
AEC_DISP_REP_2D_SECTION
  2
AecDbDispRep2dSection
  3
AecBase60
 90
      129
 91
        4
280
     0
281
     0
  0
CLASS
  1
AEC_DISP_PROPS_2D_SECTION
  2
AecDbDispProps2dSection
  3
AecBase60
 90
      129
 91
        4
280
     0
281
     0
  0
CLASS
  1
AEC_DISP_REP_CLIP_VOLUME_MODEL
  2
AecDbDispRepClipVolModel
  3
AecBase60
 90
      129
 91
        6
280
     0
281
     0
  0
CLASS
  1
AEC_DISP_PROPS_CLIP_VOLUME
  2
AecDbDispPropsClipVol
  3
AecBase60
 90
      129
 91
        4
280
     0
281
     0
  0
CLASS
  1
AEC_DISP_REP_CLIP_VOLUME_PLAN
  2
AecDbDispRepClipVolPlan
  3
AecBase60
 90
      129
 91
        4
280
     0
281
     0
  0
CLASS
  1
AEC_DISP_REP_CLIP_VOLUME_RESULT
  2
AecDbDispRepClipVolResult
  3
AecBase60
 90
      129
 91
        6
280
     0
281
     0
  0
CLASS
  1
AEC_DISP_REP_CLIP_VOLUME_RESULT_SUBDIV
  2
AecDbDispRepClipVolResSubDiv
  3
AecBase60
 90
      129
 91
        5
280
     0
281
     0
  0
CLASS
  1
AEC_DISP_PROPS_CLIP_VOLUME_RESULT
  2
AecDbDispPropsClipVolResSubDiv
  3
AecBase60
 90
      129
 91
        4
280
     0
281
     0
  0
CLASS
  1
AEC_DISP_REP_DISPLAYTHEME
  2
AecDbDispRepDisplayTheme
  3
AecBase60
 90
      129
 91
        4
280
     0
281
     0
  0
CLASS
  1
AEC_DISP_PROPS_DISPLAYTHEME
  2
AecDbDispPropsDisplayTheme
  3
AecBase60
 90
      129
 91
        4
280
     0
281
     0
  0
CLASS
  1
AEC_DISP_REP_ENT_REF
  2
AecDbDispRepEntRef
  3
AecBase60
 90
      129
 91
        4
280
     0
281
     0
  0
CLASS
  1
AEC_DISP_PROPS_ENT_REF
  2
AecDbDispPropsEntRef
  3
AecBase60
 90
      129
 91
        4
280
     0
281
     0
  0
CLASS
  1
AEC_DISP_REP_LAYOUT_CURVE
  2
AecDbDispRepLayoutCurve
  3
AecBase60
 90
      129
 91
        4
280
     0
281
     0
  0
CLASS
  1
AEC_DISP_PROPS_LAYOUT_CURVE
  2
AecDbDispPropsLayoutCurve
  3
AecBase60
 90
      129
 91
        4
280
     0
281
     0
  0
CLASS
  1
AEC_DISP_REP_LAYOUT_GRID2D
  2
AecDbDispRepLayoutGrid2d
  3
AecBase60
 90
      129
 91
        6
280
     0
281
     0
  0
CLASS
  1
AEC_DISP_PROPS_LAYOUT_GRID2D
  2
AecDbDispPropsLayoutGrid2d
  3
AecBase60
 90
      129
 91
        5
280
     0
281
     0
  0
CLASS
  1
AEC_DISP_REP_LAYOUT_GRID3D
  2
AecDbDispRepLayoutGrid3d
  3
AecBase60
 90
      129
 91
        4
280
     0
281
     0
  0
CLASS
  1
AEC_DISP_PROPS_LAYOUT_GRID3D
  2
AecDbDispPropsLayoutGrid3d
  3
AecBase60
 90
      129
 91
        4
280
     0
281
     0
  0
CLASS
  1
AEC_DISP_REP_MASKBLOCK_REF
  2
AecDbDispRepMaskBlockRef
  3
AecBase60
 90
      129
 91
        5
280
     0
281
     0
  0
CLASS
  1
AEC_DISP_PROPS_MASKBLOCK
  2
AecDbDispPropsMaskBlock
  3
AecBase60
 90
      129
 91
        4
280
     0
281
     0
  0
CLASS
  1
AEC_DISP_REP_MASKBLOCK_REF_RCP
  2
AecDbDispRepMaskBlockRefRcp
  3
AecArchBase60
 90
      129
 91
        4
280
     0
281
     0
  0
CLASS
  1
AEC_DISP_REP_MASS_ELEM_MODEL
  2
AecDbDispRepMassElemModel
  3
AecBase60
 90
      129
 91
        4
280
     0
281
     0
  0
CLASS
  1
AEC_DISP_PROPS_MASS_ELEM_MODEL
  2
AecDbDispPropsMassElem
  3
AecBase60
 90
      129
 91
        5
280
     0
281
     0
  0
CLASS
  1
AEC_DISP_REP_MASS_ELEM_SCHEM
  2
AecDbDispRepMassElemSchem
  3
AecBase60
 90
      129
 91
        5
280
     0
281
     0
  0
CLASS
  1
AEC_DISPREPAECDBDISPREPMASSELEMPLAN50
  2
AecDbDispRepMassElemPlan50
  3
AecArchDACHBase60
 90
      129
 91
        4
280
     0
281
     0
  0
CLASS
  1
AEC_DISPROPSMASSELEMPLANCOMMON
  2
AecDbDispPropsMassElemPlanCommon
  3
AecArchDACHBase60
 90
      129
 91
        4
280
     0
281
     0
  0
CLASS
  1
AEC_DISPREPAECDBDISPREPMASSELEMPLAN100
  2
AecDbDispRepMassElemPlan100
  3
AecArchDACHBase60
 90
      129
 91
        4
280
     0
281
     0
  0
CLASS
  1
AEC_DISP_REP_MASS_ELEM_RCP
  2
AecDbDispRepMassElemRcp
  3
AecArchBase60
 90
      129
 91
        4
280
     0
281
     0
  0
CLASS
  1
AEC_DISP_REP_MASS_GROUP_MODEL
  2
AecDbDispRepMassGroupModel
  3
AecBase60
 90
      129
 91
        4
280
     0
281
     0
  0
CLASS
  1
AEC_DISP_PROPS_MASS_GROUP
  2
AecDbDispPropsMassGroup
  3
AecBase60
 90
      129
 91
        5
280
     0
281
     0
  0
CLASS
  1
AEC_DISP_REP_MASS_GROUP_PLAN
  2
AecDbDispRepMassGroupPlan
  3
AecBase60
 90
      129
 91
        8
280
     0
281
     0
  0
CLASS
  1
AEC_DISPREPAECDBDISPREPMASSGROUPPLAN50
  2
AecDbDispRepMassGroupPlan50
  3
AecArchDACHBase60
 90
      129
 91
        4
280
     0
281
     0
  0
CLASS
  1
AEC_DISPROPSMASSGROUPPLANCOMMON
  2
AecDbDispPropsMassGroupPlanCommon
  3
AecArchDACHBase60
 90
      129
 91
        4
280
     0
281
     0
  0
CLASS
  1
AEC_DISPREPAECDBDISPREPMASSGROUPPLAN100
  2
AecDbDispRepMassGroupPlan100
  3
AecArchDACHBase60
 90
      129
 91
        4
280
     0
281
     0
  0
CLASS
  1
AEC_DISP_REP_MASS_GROUP_RCP
  2
AecDbDispRepMassGroupRcp
  3
AecArchBase60
 90
      129
 91
        4
280
     0
281
     0
  0
CLASS
  1
AEC_DISP_REP_MVBLOCK_REF
  2
AecDbDispRepMvBlockRef
  3
AecBase60
 90
      129
 91
        8
280
     0
281
     0
  0
CLASS
  1
AEC_DISP_REP_MVBLOCK_REF_MODEL
  2
AecDbDispRepMvBlockRefModel
  3
AecBase60
 90
      129
 91
        4
280
     0
281
     0
  0
CLASS
  1
AEC_AECDBDISPREPMVBLOCKREFPLAN100
  2
AecDbDispRepMvBlockRefPlan100
  3
AecBase60
 90
      129
 91
        4
280
     0
281
     0
  0
CLASS
  1
AEC_AECDBDISPREPMVBLOCKREFPLAN50
  2
AecDbDispRepMvBlockRefPlan50
  3
AecBase60
 90
      129
 91
        4
280
     0
281
     0
  0
CLASS
  1
AEC_DISP_REP_POLYGON_MODEL
  2
AecDbDispRepPolygonModel
  3
AecBase60
 90
      129
 91
        4
280
     0
281
     0
  0
CLASS
  1
AEC_DISP_PROPS_POLYGON_MODEL
  2
AecDbDispPropsPolygonModel
  3
AecBase60
 90
      129
 91
        4
280
     0
281
     0
  0
CLASS
  1
AEC_DISP_REP_POLYGON_TRUECOLOUR
  2
AecDbDispRepPolygonTrueColour
  3
AecBase60
 90
      129
 91
        4
280
     0
281
     0
  0
CLASS
  1
AEC_DISP_PROPS_POLYGON_TRUECOLOUR
  2
AecDbDispPropsPolygonTrueColour
  3
AecBase60
 90
      129
 91
        4
280
     0
281
     0
  0
CLASS
  1
AEC_DISP_REP_SLICE
  2
AecDbDispRepSlice
  3
AecBase60
 90
      129
 91
        4
280
     0
281
     0
  0
CLASS
  1
AEC_DISP_PROPS_SLICE
  2
AecDbDispPropsSlice
  3
AecBase60
 90
      129
 91
        4
280
     0
281
     0
  0
CLASS
  1
AEC_DISP_REP_ANCHOR
  2
AecDbDispRepAnchor
  3
AecBase60
 90
      129
 91
        4
280
     0
281
     0
  0
CLASS
  1
AEC_DISP_REP_ANCHOR_ENT_TO_NODE
  2
AecDbDispRepAnchorEntToNode
  3
AecBase60
 90
      129
 91
        5
280
     0
281
     0
  0
CLASS
  1
AEC_DISP_PROPS_ENT
  2
AecDbDispPropsEnt
  3
AecBase60
 90
      129
 91
        4
280
     0
281
     0
  0
CLASS
  1
AEC_DISP_REP_MATERIAL
  2
AecDbDispRepMaterial
  3
AecBase60
 90
      129
 91
        4
280
     0
281
     0
  0
CLASS
  1
AEC_DISP_PROPS_MATERIAL
  2
AecDbDispPropsMaterial
  3
AecBase60
 90
      129
 91
        4
280
     0
281
     0
  0
CLASS
  1
AEC_DISP_REP_EDITINPLACEPROFILE
  2
AecDbDispRepEditInPlaceProfile
  3
AecBase60
 90
      129
 91
        4
280
     0
281
     0
  0
CLASS
  1
AEC_DISP_PROPS_EDITINPLACEPROFILE_MODEL
  2
AecDbDispPropsEditInPlaceProfile
  3
AecBase60
 90
      129
 91
        4
280
     0
281
     0
  0
CLASS
  1
AEC_VARS_ARCHBASE
  2
AecDbVarsArchBase
  3
AecArchBase60
 90
      129
 91
        4
280
     0
281
     0
  0
CLASS
  1
AEC_DISP_REP_BDG_ELEVLINE_PLAN
  2
AecDbDispRepBdgElevLinePlan
  3
AecArchBase60
 90
      129
 91
        7
280
     0
281
     0
  0
CLASS
  1
AEC_DISP_REP_BDG_ELEVLINE_MODEL
  2
AecDbDispRepBdgElevLineModel
  3
AecArchBase60
 90
      129
 91
        4
280
     0
281
     0
  0
CLASS
  1
AEC_DISP_REP_BDG_ELEVLINE_RCP
  2
AecDbDispRepBdgElevLineRcp
  3
AecArchBase60
 90
      129
 91
        4
280
     0
281
     0
  0
CLASS
  1
AEC_AECDBDISPREPBDGELEVLINEPLAN100
  2
AecDbDispRepBdgElevLinePlan100
  3
AecBase60
 90
      129
 91
        4
280
     0
281
     0
  0
CLASS
  1
AEC_AECDBDISPREPBDGELEVLINEPLAN50
  2
AecDbDispRepBdgElevLinePlan50
  3
AecBase60
 90
      129
 91
        4
280
     0
281
     0
  0
CLASS
  1
AEC_DISP_REP_BDG_SECTIONLINE_MODEL
  2
AecDbDispRepBdgSectionLineModel
  3
AecArchBase60
 90
      129
 91
        4
280
     0
281
     0
  0
CLASS
  1
AEC_DISP_REP_BDG_SECTIONLINE_PLAN
  2
AecDbDispRepBdgSectionLinePlan
  3
AecArchBase60
 90
      129
 91
        7
280
     0
281
     0
  0
CLASS
  1
AEC_DISP_REP_BDG_SECTIONLINE_RCP
  2
AecDbDispRepBdgSectionLineRcp
  3
AecArchBase60
 90
      129
 91
        4
280
     0
281
     0
  0
CLASS
  1
AEC_AECDBDISPREPBDGSECTIONLINEPLAN100
  2
AecDbDispRepBdgSectionLinePlan100
  3
AecBase60
 90
      129
 91
        4
280
     0
281
     0
  0
CLASS
  1
AEC_AECDBDISPREPBDGSECTIONLINEPLAN50
  2
AecDbDispRepBdgSectionLinePlan50
  3
AecBase60
 90
      129
 91
        4
280
     0
281
     0
  0
CLASS
  1
AEC_DISP_REP_BDG_SECTION_SUBDIV
  2
AecDbDispRepBdgSectionSubDiv
  3
AecArchBase60
 90
      129
 91
        4
280
     0
281
     0
  0
CLASS
  1
AEC_DISP_REP_BDG_SECTION_MODEL
  2
AecDbDispRepBdgSectionModel
  3
AecArchBase60
 90
      129
 91
        4
280
     0
281
     0
  0
CLASS
  1
AEC_DISP_REP_CEILING_GRID
  2
AecDbDispRepCeilingGrid
  3
AecArchBase60
 90
      893
 91
        8
280
     0
281
     0
  0
CLASS
  1
AEC_DISP_REP_CEILING_GRID_MODEL
  2
AecDbDispRepCeilingGridModel
  3
AecArchBase60
 90
      129
 91
        4
280
     0
281
     0
  0
CLASS
  1
AEC_DISP_REP_CEILING_GRID_RCP
  2
AecDbDispRepCeilingGridRcp
  3
AecArchBase60
 90
      129
 91
        4
280
     0
281
     0
  0
CLASS
  1
AEC_AECDBDISPREPCEILINGGRIDPLAN100
  2
AecDbDispRepCeilingGridPlan100
  3
AecBase60
 90
      129
 91
        4
280
     0
281
     0
  0
CLASS
  1
AEC_AECDBDISPREPCEILINGGRIDPLAN50
  2
AecDbDispRepCeilingGridPlan50
  3
AecBase60
 90
      129
 91
        4
280
     0
281
     0
  0
CLASS
  1
AEC_DISP_REP_CURTAIN_WALL_LAYOUT_MODEL
  2
AecDbDispRepCurtainWallLayoutModel
  3
AecArchBase60
 90
      129
 91
        4
280
     0
281
     0
  0
CLASS
  1
AEC_DISP_PROPS_GRID_ASSEMBLY_MODEL
  2
AecDbDispPropsGridAssemblyModel
  3
AecArchBase60
 90
      129
 91
        4
280
     0
281
     0
  0
CLASS
  1
AEC_DISP_REP_CURTAIN_WALL_LAYOUT_PLAN
  2
AecDbDispRepCurtainWallLayoutPlan
  3
AecArchBase60
 90
      129
 91
        6
280
     0
281
     0
  0
CLASS
  1
AEC_DISP_PROPS_GRID_ASSEMBLY_PLAN
  2
AecDbDispPropsGridAssemblyPlan
  3
AecArchBase60
 90
      129
 91
        4
280
     0
281
     0
  0
CLASS
  1
AEC_AECDBDISPREPCURTAINWALLLAYOUTPLAN100
  2
AecDbDispRepCurtainWallLayoutPlan100
  3
AecBase60
 90
      129
 91
        4
280
     0
281
     0
  0
CLASS
  1
AEC_AECDBDISPREPCURTAINWALLLAYOUTPLAN50
  2
AecDbDispRepCurtainWallLayoutPlan50
  3
AecBase60
 90
      129
 91
        4
280
     0
281
     0
  0
CLASS
  1
AEC_DISP_REP_CURTAIN_WALL_UNIT_MODEL
  2
AecDbDispRepCurtainWallUnitModel
  3
AecArchBase60
 90
      129
 91
        4
280
     0
281
     0
  0
CLASS
  1
AEC_DISP_REP_CURTAIN_WALL_UNIT_PLAN
  2
AecDbDispRepCurtainWallUnitPlan
  3
AecArchBase60
 90
      129
 91
        6
280
     0
281
     0
  0
CLASS
  1
AEC_AECDBDISPREPCURTAINWALLUNITPLAN100
  2
AecDbDispRepCurtainWallUnitPlan100
  3
AecBase60
 90
      129
 91
        4
280
     0
281
     0
  0
CLASS
  1
AEC_AECDBDISPREPCURTAINWALLUNITPLAN50
  2
AecDbDispRepCurtainWallUnitPlan50
  3
AecBase60
 90
      129
 91
        4
280
     0
281
     0
  0
CLASS
  1
AEC_DISP_REP_DOOR_MODEL
  2
AecDbDispRepDoorModel
  3
AecArchBase60
 90
      129
 91
        5
280
     0
281
     0
  0
CLASS
  1
AEC_DISP_PROPS_DOOR
  2
AecDbDispPropsDoor
  3
AecArchBase60
 90
      129
 91
        5
280
     0
281
     0
  0
CLASS
  1
AEC_DISP_REP_DOOR_ELEV
  2
AecDbDispRepDoorElev
  3
AecArchBase60
 90
      129
 91
        4
280
     0
281
     0
  0
CLASS
  1
AEC_DISP_REP_DOOR_PLAN
  2
AecDbDispRepDoorPlan
  3
AecArchBase60
 90
      129
 91
        8
280
     0
281
     0
  0
CLASS
  1
AEC_DISP_REP_DOOR_NOMINAL
  2
AecDbDispRepDoorNominal
  3
AecArchBase60
 90
      129
 91
        4
280
     0
281
     0
  0
CLASS
  1
AEC_DISP_PROPS_DOOR_NOMINAL
  2
AecDbDispPropsDoorNominal
  3
AecArchBase60
 90
      129
 91
        4
280
     0
281
     0
  0
CLASS
  1
AEC_DISP_REP_DOOR_THRESHOLD_PLAN
  2
AecDbDispRepDoorThresholdPlan
  3
AecArchBase60
 90
      129
 91
        4
280
     0
281
     0
  0
CLASS
  1
AEC_DISP_PROPS_DOOR_THRESHOLD_PLAN
  2
AecDbDispPropsDoorThresholdPlan
  3
AecArchBase60
 90
      129
 91
        4
280
     0
281
     0
  0
CLASS
  1
AEC_DISP_REP_DOOR_PLAN_50
  2
AecDbDispRepDoorPlan50
  3
AecArchDACHBase60
 90
      129
 91
        4
280
     0
281
     0
  0
CLASS
  1
AEC_DISP_PROPS_DOOR_PLAN_50
  2
AecDbDispPropsDoorPlan50
  3
AecArchDACHBase60
 90
      129
 91
        4
280
     0
281
     0
  0
CLASS
  1
AEC_DISP_REP_DOOR_PLAN_HEKTO
  2
AecDbDispRepDoorPlanHekto
  3
AecArchDACHBase60
 90
      129
 91
        4
280
     0
281
     0
  0
CLASS
  1
AEC_DISP_PROPS_DOOR_PLAN_100
  2
AecDbDispPropsDoorPlan100
  3
AecArchDACHBase60
 90
      129
 91
        4
280
     0
281
     0
  0
CLASS
  1
AEC_DISP_REP_DOOR_RCP
  2
AecDbDispRepDoorRcp
  3
AecArchBase60
 90
      129
 91
        4
280
     0
281
     0
  0
CLASS
  1
AEC_DISP_REP_DOOR_THRESHOLD_SYMBOL_PLAN
  2
AecDbDispRepDoorThresholdSymbolPlan
  3
AecArchDACHBase60
 90
      129
 91
        4
280
     0
281
     0
  0
CLASS
  1
AEC_DISP_PROPS_DOOR_THRESHOLD_SYMBOL_PLAN
  2
AecDbDispPropsDoorThresholdSymbolPlan
  3
AecArchDACHBase60
 90
      129
 91
        4
280
     0
281
     0
  0
CLASS
  1
AEC_DISP_REP_OPENING
  2
AecDbDispRepOpening
  3
AecArchBase60
 90
      129
 91
        6
280
     0
281
     0
  0
CLASS
  1
AEC_DISP_PROPS_OPENING
  2
AecDbDispPropsOpening
  3
AecArchBase60
 90
      129
 91
        5
280
     0
281
     0
  0
CLASS
  1
AEC_DISP_REP_OPENING_MODEL
  2
AecDbDispRepOpeningModel
  3
AecArchBase60
 90
      129
 91
        4
280
     0
281
     0
  0
CLASS
  1
AEC_DISPREPAECDBDISPREPOPENINGPLAN100
  2
AecDbDispRepOpeningPlan100
  3
AecArchDACHBase60
 90
      129
 91
        4
280
     0
281
     0
  0
CLASS
  1
AEC_DISPROPSOPENINGPLANCOMMONHATCHED
  2
AecDbDispPropsOpeningPlanCommonHatched
  3
AecArchDACHBase60
 90
      129
 91
        4
280
     0
281
     0
  0
CLASS
  1
AEC_DISPREPAECDBDISPREPOPENINGPLAN50
  2
AecDbDispRepOpeningPlan50
  3
AecArchDACHBase60
 90
      129
 91
        4
280
     0
281
     0
  0
CLASS
  1
AEC_DISPREPAECDBDISPREPOPENINGPLANREFLECTED
  2
AecDbDispRepOpeningPlanReflected
  3
AecArchDACHBase60
 90
      129
 91
        4
280
     0
281
     0
  0
CLASS
  1
AEC_DISPROPSOPENINGPLANCOMMON
  2
AecDbDispPropsOpeningPlanCommon
  3
AecArchDACHBase60
 90
      129
 91
        5
280
     0
281
     0
  0
CLASS
  1
AEC_DISPREPAECDBDISPREPOPENINGSILLPLAN
  2
AecDbDispRepOpeningSillPlan
  3
AecArchDACHBase60
 90
      129
 91
        4
280
     0
281
     0
  0
CLASS
  1
AEC_DISPROPSOPENINGSILLPLAN
  2
AecDbDispPropsOpeningSillPlan
  3
AecArchDACHBase60
 90
      129
 91
        4
280
     0
281
     0
  0
CLASS
  1
AEC_DISP_REP_RAILING_MODEL
  2
AecDbDispRepRailingModel
  3
AecArchBase60
 90
      129
 91
        4
280
     0
281
     0
  0
CLASS
  1
AEC_DISP_PROPS_RAILING_MODEL
  2
AecDbDispPropsRailingModel
  3
AecArchBase60
 90
      129
 91
        4
280
     0
281
     0
  0
CLASS
  1
AEC_DISP_REP_RAILING_PLAN
  2
AecDbDispRepRailingPlan
  3
AecArchBase60
 90
      129
 91
        5
280
     0
281
     0
  0
CLASS
  1
AEC_DISP_PROPS_RAILING_PLAN
  2
AecDbDispPropsRailingPlan
  3
AecArchBase60
 90
      129
 91
        5
280
     0
281
     0
  0
CLASS
  1
AEC_DISP_REP_RAILING_PLAN_100
  2
AecDbDispRepRailingPlan100
  3
AecArchDACHBase60
 90
      129
 91
        4
280
     0
281
     0
  0
CLASS
  1
AEC_DISP_ROPS_RAILING_PLAN_100
  2
AecDbDispPropsRailingPlan100
  3
AecArchDACHBase60
 90
      129
 91
        4
280
     0
281
     0
  0
CLASS
  1
AEC_DISP_REP_RAILING_PLAN_50
  2
AecDbDispRepRailingPlan50
  3
AecArchDACHBase60
 90
      129
 91
        4
280
     0
281
     0
  0
CLASS
  1
AEC_DISP_ROPS_RAILING_PLAN_50
  2
AecDbDispPropsRailingPlan50
  3
AecArchDACHBase60
 90
      129
 91
        4
280
     0
281
     0
  0
CLASS
  1
AEC_DISP_REP_ROOF_MODEL
  2
AecDbDispRepRoofModel
  3
AecArchBase60
 90
      129
 91
        4
280
     0
281
     0
  0
CLASS
  1
AEC_DISP_PROPS_ROOF
  2
AecDbDispPropsRoof
  3
AecArchBase60
 90
      129
 91
        4
280
     0
281
     0
  0
CLASS
  1
AEC_DISP_REP_ROOF_PLAN
  2
AecDbDispRepRoofPlan
  3
AecArchBase60
 90
      129
 91
        8
280
     0
281
     0
  0
CLASS
  1
AEC_DISP_REP_ROOF_RCP
  2
AecDbDispRepRoofRcp
  3
AecArchBase60
 90
      129
 91
        4
280
     0
281
     0
  0
CLASS
  1
AEC_AECDBDISPREPROOFPLAN100
  2
AecDbDispRepRoofPlan100
  3
AecBase60
 90
      129
 91
        4
280
     0
281
     0
  0
CLASS
  1
AEC_AECDBDISPREPROOFPLAN50
  2
AecDbDispRepRoofPlan50
  3
AecBase60
 90
      129
 91
        4
280
     0
281
     0
  0
CLASS
  1
AEC_DISP_REP_ROOFSLAB_MODEL
  2
AecDbDispRepRoofSlabModel
  3
AecArchBase60
 90
      129
 91
        4
280
     0
281
     0
  0
CLASS
  1
AEC_DISP_PROPS_ROOFSLAB
  2
AecDbDispPropsRoofSlab
  3
AecArchBase60
 90
      129
 91
        4
280
     0
281
     0
  0
CLASS
  1
AEC_DISP_REP_ROOFSLAB_PLAN
  2
AecDbDispRepRoofSlabPlan
  3
AecArchBase60
 90
      129
 91
        6
280
     0
281
     0
  0
CLASS
  1
AEC_DISP_PROPS_ROOFSLAB_PLAN
  2
AecDbDispPropsRoofSlabPlan
  3
AecArchBase60
 90
      129
 91
        4
280
     0
281
     0
  0
CLASS
  1
AEC_AECDBDISPREPROOFSLABPLAN100
  2
AecDbDispRepRoofSlabPlan100
  3
AecBase60
 90
      129
 91
        4
280
     0
281
     0
  0
CLASS
  1
AEC_AECDBDISPREPROOFSLABPLAN50
  2
AecDbDispRepRoofSlabPlan50
  3
AecBase60
 90
      129
 91
        4
280
     0
281
     0
  0
CLASS
  1
AEC_DISP_REP_SLAB_MODEL
  2
AecDbDispRepSlabModel
  3
AecArchBase60
 90
      129
 91
        5
280
     0
281
     0
  0
CLASS
  1
AEC_DISP_PROPS_SLAB
  2
AecDbDispPropsSlab
  3
AecArchBase60
 90
      129
 91
        6
280
     0
281
     0
  0
CLASS
  1
AEC_DISP_REP_SLAB_PLAN
  2
AecDbDispRepSlabPlan
  3
AecArchBase60
 90
      129
 91
        7
280
     0
281
     0
  0
CLASS
  1
AEC_DISP_PROPS_SLAB_PLAN
  2
AecDbDispPropsSlabPlan
  3
AecArchBase60
 90
      129
 91
        5
280
     0
281
     0
  0
CLASS
  1
AEC_AECDBDISPREPSLABPLAN100
  2
AecDbDispRepSlabPlan100
  3
AecBase60
 90
      129
 91
        4
280
     0
281
     0
  0
CLASS
  1
AEC_AECDBDISPREPSLABPLAN50
  2
AecDbDispRepSlabPlan50
  3
AecBase60
 90
      129
 91
        4
280
     0
281
     0
  0
CLASS
  1
AEC_DISP_REP_SPACE_MODEL
  2
AecDbDispRepSpaceModel
  3
AecArchBase60
 90
      129
 91
        4
280
     0
281
     0
  0
CLASS
  1
AEC_DISP_PROPS_SPACE_MODEL
  2
AecDbDispPropsSpaceModel
  3
AecArchBase60
 90
      129
 91
        4
280
     0
281
     0
  0
CLASS
  1
AEC_DISP_REP_SPACE_PLAN
  2
AecDbDispRepSpacePlan
  3
AecArchBase60
 90
      129
 91
        7
280
     0
281
     0
  0
CLASS
  1
AEC_DISP_PROPS_SPACE_PLAN
  2
AecDbDispPropsSpacePlan
  3
AecArchBase60
 90
      129
 91
        4
280
     0
281
     0
  0
CLASS
  1
AEC_DISP_REP_SPACE_RCP
  2
AecDbDispRepSpaceRcp
  3
AecArchBase60
 90
      129
 91
        4
280
     0
281
     0
  0
CLASS
  1
AEC_DISP_REP_SPACE_VOLUME
  2
AecDbDispRepSpaceVolume
  3
AecArchBase60
 90
      129
 91
        4
280
     0
281
     0
  0
CLASS
  1
AEC_DISP_REP_SPACE_DECOMPOSED
  2
AecDbDispRepSpaceDecomposed
  3
AecArchBase60
 90
      129
 91
        4
280
     0
281
     0
  0
CLASS
  1
AEC_DISP_PROPS_SPACE_DECOMPOSED
  2
AecDbDispPropsSpaceDecomposed
  3
AecArchBase60
 90
      129
 91
        4
280
     0
281
     0
  0
CLASS
  1
AEC_AECDBDISPREPSPACEPLAN100
  2
AecDbDispRepSpacePlan100
  3
AecBase60
 90
      129
 91
        4
280
     0
281
     0
  0
CLASS
  1
AEC_AECDBDISPREPSPACEPLAN50
  2
AecDbDispRepSpacePlan50
  3
AecBase60
 90
      129
 91
        4
280
     0
281
     0
  0
CLASS
  1
AEC_DISP_REP_STAIR_MODEL
  2
AecDbDispRepStairModel
  3
AecArchBase60
 90
      129
 91
        4
280
     0
281
     0
  0
CLASS
  1
AEC_DISP_PROPS_STAIR_MODEL
  2
AecDbDispPropsStairModel
  3
AecArchBase60
 90
      129
 91
        4
280
     0
281
     0
  0
CLASS
  1
AEC_DISP_REP_STAIR_PLAN
  2
AecDbDispRepStairPlan
  3
AecArchBase60
 90
      129
 91
        7
280
     0
281
     0
  0
CLASS
  1
AEC_DISP_PROPS_STAIR_PLAN
  2
AecDbDispPropsStairPlan
  3
AecArchBase60
 90
      129
 91
        6
280
     0
281
     0
  0
CLASS
  1
AEC_DISP_REP_STAIR_RCP
  2
AecDbDispRepStairRcp
  3
AecArchBase60
 90
      129
 91
        4
280
     0
281
     0
  0
CLASS
  1
AEC_DISP_REP_STAIR_PLAN_100
  2
AecDbDispRepStairPlan100
  3
AecArchDACHBase60
 90
      129
 91
        4
280
     0
281
     0
  0
CLASS
  1
AEC_DISP_ROPS_STAIR_PLAN_100
  2
AecDbDispPropsStairPlan100
  3
AecArchDACHBase60
 90
      129
 91
        4
280
     0
281
     0
  0
CLASS
  1
AEC_DISP_REP_STAIR_PLAN_50
  2
AecDbDispRepStairPlan50
  3
AecArchDACHBase60
 90
      129
 91
        4
280
     0
281
     0
  0
CLASS
  1
AEC_DISP_ROPS_STAIR_PLAN_50
  2
AecDbDispPropsStairPlan50
  3
AecArchDACHBase60
 90
      129
 91
        4
280
     0
281
     0
  0
CLASS
  1
AEC_DISP_REP_STAIR_PLAN_OVERLAPPING
  2
AecDbDispRepStairPlanOverlapping
  3
AecArchBase60
 90
      129
 91
        4
280
     0
281
     0
  0
CLASS
  1
AEC_DISP_PROPS_STAIR_PLAN_OVERLAPPING
  2
AecDbDispPropsStairPlanOverlapping
  3
AecArchBase60
 90
      129
 91
        4
280
     0
281
     0
  0
CLASS
  1
AEC_DISP_REP_WALL_GRAPH
  2
AecDbDispRepWallGraph
  3
AecArchBase60
 90
      129
 91
        4
280
     0
281
     0
  0
CLASS
  1
AEC_DISP_PROPS_WALL_GRAPH
  2
AecDbDispPropsWallGraph
  3
AecArchBase60
 90
      129
 91
        4
280
     0
281
     0
  0
CLASS
  1
AEC_DISP_REP_WALL_MODEL
  2
AecDbDispRepWallModel
  3
AecArchBase60
 90
      129
 91
        4
280
     0
281
     0
  0
CLASS
  1
AEC_DISP_PROPS_WALL_MODEL
  2
AecDbDispPropsWallModel
  3
AecArchBase60
 90
      129
 91
        4
280
     0
281
     0
  0
CLASS
  1
AEC_DISP_REP_WALL_PLAN
  2
AecDbDispRepWallPlan
  3
AecArchBase60
 90
      129
 91
        7
280
     0
281
     0
  0
CLASS
  1
AEC_DISP_PROPS_WALL_PLAN
  2
AecDbDispPropsWallPlan
  3
AecArchBase60
 90
      129
 91
        4
280
     0
281
     0
  0
CLASS
  1
AEC_DISP_REP_WALL_RCP
  2
AecDbDispRepWallRcp
  3
AecArchBase60
 90
      129
 91
        4
280
     0
281
     0
  0
CLASS
  1
AEC_DISP_REP_WALL_SCHEM
  2
AecDbDispRepWallSchem
  3
AecArchBase60
 90
      129
 91
        4
280
     0
281
     0
  0
CLASS
  1
AEC_DISP_PROPS_WALL_SCHEM
  2
AecDbDispPropsWallSchem
  3
AecArchBase60
 90
      129
 91
        4
280
     0
281
     0
  0
CLASS
  1
AEC_AECDBDISPREPWALLPLAN100
  2
AecDbDispRepWallPlan100
  3
AecBase60
 90
      129
 91
        4
280
     0
281
     0
  0
CLASS
  1
AEC_AECDBDISPREPWALLPLAN50
  2
AecDbDispRepWallPlan50
  3
AecBase60
 90
      129
 91
        4
280
     0
281
     0
  0
CLASS
  1
AEC_DISP_REP_WINDOW_MODEL
  2
AecDbDispRepWindowModel
  3
AecArchBase60
 90
      129
 91
        5
280
     0
281
     0
  0
CLASS
  1
AEC_DISP_PROPS_WINDOW
  2
AecDbDispPropsWindow
  3
AecArchBase60
 90
      129
 91
        6
280
     0
281
     0
  0
CLASS
  1
AEC_DISP_REP_WINDOW_ELEV
  2
AecDbDispRepWindowElev
  3
AecArchBase60
 90
      129
 91
        4
280
     0
281
     0
  0
CLASS
  1
AEC_DISP_REP_WINDOW_PLAN
  2
AecDbDispRepWindowPlan
  3
AecArchBase60
 90
      129
 91
        8
280
     0
281
     0
  0
CLASS
  1
AEC_DISP_REP_WINDOW_NOMINAL
  2
AecDbDispRepWindowNominal
  3
AecArchBase60
 90
      129
 91
        4
280
     0
281
     0
  0
CLASS
  1
AEC_DISP_PROPS_WINDOW_NOMINAL
  2
AecDbDispPropsWindowNominal
  3
AecArchBase60
 90
      129
 91
        4
280
     0
281
     0
  0
CLASS
  1
AEC_DISP_REP_WINDOW_RCP
  2
AecDbDispRepWindowRcp
  3
AecArchBase60
 90
      129
 91
        4
280
     0
281
     0
  0
CLASS
  1
AEC_DISP_REP_WINDOW_SILL_PLAN
  2
AecDbDispRepWindowSillPlan
  3
AecArchBase60
 90
      129
 91
        4
280
     0
281
     0
  0
CLASS
  1
AEC_DISP_PROPS_WINDOW_SILL_PLAN
  2
AecDbDispPropsWindowSillPlan
  3
AecArchBase60
 90
      129
 91
        4
280
     0
281
     0
  0
CLASS
  1
AEC_DISP_REP_WINDOW_PLAN_100
  2
AecDbDispRepWindowPlan100
  3
AecArchDACHBase60
 90
      129
 91
        4
280
     0
281
     0
  0
CLASS
  1
AEC_DISP_PROPS_WINDOW_PLAN_100
  2
AecDbDispPropsWindowPlan100
  3
AecArchDACHBase60
 90
      129
 91
        4
280
     0
281
     0
  0
CLASS
  1
AEC_DISP_REP_WINDOW_PLAN_50
  2
AecDbDispRepWindowPlan50
  3
AecArchDACHBase60
 90
      129
 91
        4
280
     0
281
     0
  0
CLASS
  1
AEC_DISP_PROPS_WINDOW_PLAN_50
  2
AecDbDispPropsWindowPlan50
  3
AecArchDACHBase60
 90
      129
 91
        4
280
     0
281
     0
  0
CLASS
  1
AEC_DISP_REP_WINDOW_ASSEMBLY_MODEL
  2
AecDbDispRepWindowAssemblyModel
  3
AecArchBase60
 90
      129
 91
        4
280
     0
281
     0
  0
CLASS
  1
AEC_DISP_REP_WINDOW_ASSEMBLY_PLAN
  2
AecDbDispRepWindowAssemblyPlan
  3
AecArchBase60
 90
      129
 91
        6
280
     0
281
     0
  0
CLASS
  1
AEC_DISP_REP_WINDOWASSEMBLY_SILL_PLAN
  2
AecDbDispRepWindowAssemblySillPlan
  3
AecArchBase60
 90
      129
 91
        4
280
     0
281
     0
  0
CLASS
  1
AEC_DISP_PROPS_WINDOW_ASSEMBLY_SILL_PLAN
  2
AecDbDispPropsWindowAssemblySillPlan
  3
AecArchBase60
 90
      129
 91
        4
280
     0
281
     0
  0
CLASS
  1
AEC_AECDBDISPREPWINDOWASSEMBLYPLAN100
  2
AecDbDispRepWindowAssemblyPlan100
  3
AecBase60
 90
      129
 91
        4
280
     0
281
     0
  0
CLASS
  1
AEC_AECDBDISPREPWINDOWASSEMBLYPLAN50
  2
AecDbDispRepWindowAssemblyPlan50
  3
AecBase60
 90
      129
 91
        4
280
     0
281
     0
  0
CLASS
  1
AEC_DB_DISP_REP_DIM_GROUP_PLAN
  2
AecDbDispRepDimGroupPlan
  3
AecArchDACHBase60
 90
      129
 91
        4
280
     0
281
     0
  0
CLASS
  1
AEC_DISP_PROPS_DIM
  2
AecDbDispPropsDimGroup
  3
AecArchDACHBase60
 90
      129
 91
        4
280
     0
281
     0
  0
CLASS
  1
AEC_DB_DISP_REP_DIM_GROUP_PLAN100
  2
AecDbDispRepDimGroupPlan100
  3
AecArchDACHBase60
 90
      129
 91
        4
280
     0
281
     0
  0
CLASS
  1
AEC_DB_DISP_REP_DIM_GROUP_PLAN50
  2
AecDbDispRepDimGroupPlan50
  3
AecArchDACHBase60
 90
      129
 91
        4
280
     0
281
     0
  0
CLASS
  1
AEC_DISP_REP_SCHEDULE_TABLE
  2
AecDbDispRepScheduleTable
  3
AecSchedule50
 90
      129
 91
        4
280
     0
281
     0
  0
CLASS
  1
AEC_DISP_PROPS_SCHEDULE_TABLE
  2
AecDbDispPropsScheduleTable
  3
AecSchedule50
 90
      129
 91
        4
280
     0
281
     0
  0
CLASS
  1
AEC_DISP_REP_ANCHOR_TAG_TO_ENT
  2
AecDbDispRepAnchorTagToEnt
  3
AecScheduleData60
 90
      129
 91
        5
280
     0
281
     0
  0
CLASS
  1
AEC_DISP_REP_ANCHOR_EXT_TAG_TO_ENT
  2
AecDbDispRepAnchorExtendedTagToEnt
  3
AecScheduleData60
 90
      129
 91
        4
280
     0
281
     0
  0
CLASS
  1
AEC_DISP_REP_SET
  2
AecDbDispRepSet
  3
AecBase60
 90
      129
 91
        4
280
     0
281
     0
  0
CLASS
  1
AECS_DISP_REP_MEMBER_MODEL_DESIGN
  2
AecsDbDispRepMemberModelDesign
  3
AecStructureBase60
 90
      129
 91
        4
280
     0
281
     0
  0
CLASS
  1
AECS_DISP_PROPS_MEMBER
  2
AecsDbDispPropsMember
  3
AecStructureBase60
 90
      129
 91
        6
280
     0
281
     0
  0
CLASS
  1
AECS_DISP_REP_MEMBER_PLAN_DESIGN
  2
AecsDbDispRepMemberPlanDesign
  3
AecStructureBase60
 90
      129
 91
        4
280
     0
281
     0
  0
CLASS
  1
AECS_DISP_PROPS_MEMBER_PLAN
  2
AecsDbDispPropsMemberPlan
  3
AecStructureBase60
 90
      129
 91
        5
280
     0
281
     0
  0
CLASS
  1
AEC_DISP_REP_CONFIG
  2
AecDbDispRepConfig
  3
AecBase60
 90
      129
 91
        4
280
     0
281
     0
  0
CLASS
  1
MLEADERSTYLE
  2
AcDbMLeaderStyle
  3
ACDB_MLEADERSTYLE_CLASS
 90
     4095
 91
        4
280
     0
281
     0
  0
CLASS
  1
AEC_WALL_STYLE
  2
AecDbWallStyle
  3
AecArchBase60
 90
      129
 91
        4
280
     0
281
     0
  0
CLASS
  1
AEC_CLEANUP_GROUP_DEF
  2
AecDbCleanupGroupDef
  3
AecArchBase60
 90
      129
 91
        4
280
     0
281
     0
  0
CLASS
  1
AEC_ENDCAP_STYLE
  2
AecDbEndcapStyle
  3
AecArchBase60
 90
      129
 91
        4
280
     0
281
     0
  0
CLASS
  1
AEC_FRAME_DEF
  2
AecDbOpeningEndcapStyle
  3
AecArchBase60
 90
      129
 91
        4
280
     0
281
     0
  0
CLASS
  1
AEC_MATERIAL_DEF
  2
AecDbMaterialDef
  3
AecBase60
 90
      129
 91
        4
280
     0
281
     0
  0
CLASS
  1
TABLESTYLE
  2
AcDbTableStyle
  3
ObjectDBX Classes
 90
     4095
 91
        4
280
     0
281
     0
  0
CLASS
  1
TCOPTIONALDATA
  2
TcOptionalData
  3
ExTcadCustObjs|Description: TurboCAD extension data object
 90
     4095
 91
        4
280
     0
281
     0
  0
CLASS
  1
CELLSTYLEMAP
  2
AcDbCellStyleMap
  3
ObjectDBX Classes
 90
     1152
 91
        4
280
     0
281
     0
  0
ENDSEC
  0
SECTION
  2
TABLES
  0
TABLE
  2
VPORT
  5
8
330
0
100
AcDbSymbolTable
 70
     1
  0
VPORT
  5
29
330
8
100
AcDbSymbolTableRecord
100
AcDbViewportTableRecord
  2
*Active
 70
     0
 10
0.0
 20
0.0
 11
1.0
 21
1.0
 12
0.0
 22
0.0
 13
0.0
 23
0.0
 14
5.0
 24
5.0
 15
5.0
 25
5.0
 16
0.0
 26
0.0
 36
1.0
 17
259.8954927991998
 27
279.8479847144644
 37
0.0
 40
925.9980938317894
 41
1.774078478002378
 42
50.0
 43
0.0
 44
0.0
 50
0.0
 51
0.0
 71
     0
 72
   100
 73
     1
 74
     3
 75
     0
 76
     0
 77
     0
 78
     0
281
     0
 65
     1
110
0.0
120
0.0
130
0.0
111
1.0
121
0.0
131
0.0
112
0.0
122
1.0
132
0.0
 79
     0
146
0.0
 60
     3
 61
     5
292
     1
282
     1
141
0.0
142
0.0
 63
   250
  0
ENDTAB
  0
TABLE
  2
LTYPE
  5
5
330
0
100
AcDbSymbolTable
 70
    12
  0
LTYPE
  5
14
330
5
100
AcDbSymbolTableRecord
100
AcDbLinetypeTableRecord
  2
ByBlock
 70
     0
  3

 72
    65
 73
     0
 40
0.0
  0
LTYPE
  5
15
330
5
100
AcDbSymbolTableRecord
100
AcDbLinetypeTableRecord
  2
ByLayer
 70
     0
  3

 72
    65
 73
     0
 40
0.0
  0
LTYPE
  5
16
330
5
100
AcDbSymbolTableRecord
100
AcDbLinetypeTableRecord
  2
Continuous
 70
     0
  3
Solid line
 72
    65
 73
     0
 40
0.0
  0
LTYPE
  5
150
330
5
100
AcDbSymbolTableRecord
100
AcDbLinetypeTableRecord
  2
Rand
 70
     0
  3
Rand
 72
    65
 73
     6
 40
1.75
 49
0.5
 74
     0
 49
-0.25
 74
     0
 49
0.5
 74
     0
 49
-0.25
 74
     0
 49
0.0
 74
     0
 49
-0.25
 74
     0
  0
LTYPE
  5
151
330
5
100
AcDbSymbolTableRecord
100
AcDbLinetypeTableRecord
  2
Mitte
 70
     0
  3
Mitte
 72
    65
 73
     4
 40
2.0
 49
1.25
 74
     0
 49
-0.25
 74
     0
 49
0.25
 74
     0
 49
-0.25
 74
     0
  0
LTYPE
  5
152
330
5
100
AcDbSymbolTableRecord
100
AcDbLinetypeTableRecord
  2
Strichpunkt
 70
     0
  3
Strichpunkt
 72
    65
 73
     4
 40
1.0
 49
0.5
 74
     0
 49
-0.25
 74
     0
 49
0.0
 74
     0
 49
-0.25
 74
     0
  0
LTYPE
  5
153
330
5
100
AcDbSymbolTableRecord
100
AcDbLinetypeTableRecord
  2
Gestrichelt
 70
     0
  3
Gestrichelt
 72
    65
 73
     2
 40
0.75
 49
0.5
 74
     0
 49
-0.25
 74
     0
  0
LTYPE
  5
154
330
5
100
AcDbSymbolTableRecord
100
AcDbLinetypeTableRecord
  2
Geteilt
 70
     0
  3
Geteilt
 72
    65
 73
     6
 40
1.25
 49
0.5
 74
     0
 49
-0.25
 74
     0
 49
0.0
 74
     0
 49
-0.25
 74
     0
 49
0.0
 74
     0
 49
-0.25
 74
     0
  0
LTYPE
  5
155
330
5
100
AcDbSymbolTableRecord
100
AcDbLinetypeTableRecord
  2
Punkt
 70
     0
  3
Punkt
 72
    65
 73
     2
 40
0.25
 49
0.0
 74
     0
 49
-0.25
 74
     0
  0
LTYPE
  5
156
330
5
100
AcDbSymbolTableRecord
100
AcDbLinetypeTableRecord
  2
Verdeckt
 70
     0
  3
Verdeckt
 72
    65
 73
     2
 40
0.375
 49
0.25
 74
     0
 49
-0.125
 74
     0
  0
LTYPE
  5
157
330
5
100
AcDbSymbolTableRecord
100
AcDbLinetypeTableRecord
  2
$INVISIBLE
 70
     0
  3
$INVISIBLE
 72
    65
 73
     2
 40
200.0
 49
-100.0
 74
     0
 49
-100.0
 74
     0
  0
LTYPE
  5
158
330
5
100
AcDbSymbolTableRecord
100
AcDbLinetypeTableRecord
  2
$SNAPEXT
 70
     0
  3
$SNAPEXT
 72
    65
 73
     2
 40
0.04
 49
0.02
 74
     0
 49
-0.02
 74
     0
  0
LTYPE
  5
159
330
5
100
AcDbSymbolTableRecord
100
AcDbLinetypeTableRecord
  2
$CONSTRUCTION
 70
     0
  3
$CONSTRUCTION
 72
    65
 73
     4
 40
0.3
 49
0.2
 74
     0
 49
-0.05
 74
     0
 49
0.0
 74
     0
 49
-0.05
 74
     0
  0
LTYPE
  5
15A
330
5
100
AcDbSymbolTableRecord
100
AcDbLinetypeTableRecord
  2
$AUXILIARY
 70
     0
  3
$AUXILIARY
 72
    65
 73
     2
 40
0.1
 49
0.05
 74
     0
 49
-0.05
 74
     0
  0
ENDTAB
  0
TABLE
  2
LAYER
  5
2
330
0
100
AcDbSymbolTable
 70
     1
  0
LAYER
  5
10
330
2
100
AcDbSymbolTableRecord
100
AcDbLayerTableRecord
  2
0
 70
     0
 62
     7
  6
Continuous
370
     0
390
F
347
3E
  0
ENDTAB
  0
TABLE
  2
STYLE
  5
3
330
0
100
AcDbSymbolTable
 70
     1
  0
STYLE
  5
11
330
3
100
AcDbSymbolTableRecord
100
AcDbTextStyleTableRecord
  2
Standard
 70
     0
 40
0.0
 41
1.0
 50
0.0
 71
     0
 42
3.0
  3

  4

1001
ACAD
1000
Times New Roman
1071
      290
  0
ENDTAB
  0
TABLE
  2
VIEW
  5
6
330
0
100
AcDbSymbolTable
 70
     1
  0
VIEW
  5
15B
330
6
100
AcDbSymbolTableRecord
100
AcDbViewTableRecord
  2
Ansicht_0
 70
     0
 40
210.0
 10
148.5
 20
105.0
 41
297.0
 11
0.0
 21
0.0
 31
1.0
 12
0.0
 22
0.0
 32
0.0
 42
50.0
 43
0.0
 44
0.0
 50
0.0
 71
     0
281
     0
 72
     0
 73
     0
  0
ENDTAB
  0
TABLE
  2
UCS
  5
7
330
0
100
AcDbSymbolTable
 70
     0
  0
ENDTAB
  0
TABLE
  2
APPID
  5
9
330
0
100
AcDbSymbolTable
 70
     7
  0
APPID
  5
12
330
9
100
AcDbSymbolTableRecord
100
AcDbRegAppTableRecord
  2
ACAD
 70
     0
  0
APPID
  5
3F
330
9
100
AcDbSymbolTableRecord
100
AcDbRegAppTableRecord
  2
TCAD
 70
     0
  0
APPID
  5
15E
330
9
100
AcDbSymbolTableRecord
100
AcDbRegAppTableRecord
  2
ACAD_MLEADERVER
 70
     0
  0
APPID
  5
19D
330
9
100
AcDbSymbolTableRecord
100
AcDbRegAppTableRecord
  2
AcDbBlockRepETag
 70
     0
  0
ENDTAB
  0
TABLE
  2
DIMSTYLE
  5
A
330
0
100
AcDbSymbolTable
 70
     1
100
AcDbDimStyleTable
  0
DIMSTYLE
105
27
330
A
100
AcDbSymbolTableRecord
100
AcDbDimStyleTableRecord
  2
Standard
 70
     0
 41
3.0
 42
1.0
 43
7.5
 44
2.0
 45
0.01
 74
     0
 77
     1
 78
     1
140
3.0
141
0.0
143
1.0
147
2.0
148
0.01
172
     1
176
     7
177
     7
271
     2
178
     7
271
     2
272
     3
276
     2
278
     0
340
11
345
14
346
14
347
14
  0
ENDTAB
  0
TABLE
  2
BLOCK_RECORD
  5
1
330
0
100
AcDbSymbolTable
 70
     6
  0
BLOCK_RECORD
  5
1F
330
1
100
AcDbSymbolTableRecord
100
AcDbBlockTableRecord
  2
*Model_Space
340
22
 70
     0
280
     1
281
     0
  0
BLOCK_RECORD
  5
1B
330
1
100
AcDbSymbolTableRecord
100
AcDbBlockTableRecord
  2
*Paper_Space
340
1E
 70
     0
280
     1
281
     0
  0
BLOCK_RECORD
  5
16C
330
1
100
AcDbSymbolTableRecord
100
AcDbBlockTableRecord
  2
Bildschirm
340
0
102
{BLKREFS
331
40E
102
}
 70
     0
280
     1
281
     0
  0
BLOCK_RECORD
  5
19A
330
1
100
AcDbSymbolTableRecord
100
AcDbBlockTableRecord
  2
Pfeil
340
0
102
{BLKREFS
331
199
331
1AE
102
}
 70
     0
280
     1
281
     0
  0
BLOCK_RECORD
  5
1B0
330
1
100
AcDbSymbolTableRecord
100
AcDbBlockTableRecord
  2
Lampe
340
0
102
{BLKREFS
331
1AF
102
}
 70
     0
280
     1
281
     0
  0
BLOCK_RECORD
  5
20B
330
1
100
AcDbSymbolTableRecord
100
AcDbBlockTableRecord
  2
TV
340
0
102
{BLKREFS
331
20A
102
}
 70
     0
280
     1
281
     0
  0
ENDTAB
  0
ENDSEC
  0
SECTION
  2
BLOCKS
  0
BLOCK
  5
20
330
1F
100
AcDbEntity
  8
0
100
AcDbBlockBegin
  2
*Model_Space
 70
     0
 10
0.0
 20
0.0
 30
0.0
  3
*Model_Space
  1

  0
ENDBLK
  5
21
330
1F
100
AcDbEntity
  8
0
100
AcDbBlockEnd
  0
BLOCK
  5
1C
330
1B
100
AcDbEntity
 67
     1
  8
0
100
AcDbBlockBegin
  2
*Paper_Space
 70
     0
 10
0.0
 20
0.0
 30
0.0
  3
*Paper_Space
  1

  0
ENDBLK
  5
1D
330
1B
100
AcDbEntity
 67
     1
  8
0
100
AcDbBlockEnd
  0
BLOCK
  5
16D
330
16C
100
AcDbEntity
  8
0
100
AcDbBlockBegin
  2
Bildschirm
 70
     0
 10
0.0
 20
0.0
 30
0.0
  3
Bildschirm
  1

  0
LWPOLYLINE
  5
16E
102
{ACAD_XDICTIONARY
360
16F
102
}
330
16C
100
AcDbEntity
  8
0
100
AcDbPolyline
 90
        4
 70
     1
 43
0.0
 10
-369.2617964599485
 20
999.759680468264
 10
198.1457451162278
 20
999.759680468264
 10
198.1457451162278
 20
91.91841200572573
 10
-369.2617964599485
 20
91.91841200572573
  0
LWPOLYLINE
  5
171
102
{ACAD_XDICTIONARY
360
172
102
}
330
16C
100
AcDbEntity
  8
0
100
AcDbPolyline
 90
        4
 70
     1
 43
0.0
 10
-303.6623486123863
 20
898.5725253926302
 10
133.1772693677631
 20
898.5725253926302
 10
133.1772693677631
 20
178.038135007182
 10
-303.6623486123863
 20
178.038135007182
  0
LWPOLYLINE
  5
174
102
{ACAD_XDICTIONARY
360
175
102
}
330
16C
100
AcDbEntity
  8
0
100
AcDbPolyline
 90
        8
 70
     1
 43
0.0
 10
-232.6255601158409
 20
718.2251712112477
 10
-190.2877311071497
 20
718.2251712112477
 42
-0.4142135623730951
 10
-166.2877311071497
 20
694.2251712112477
 10
-166.2877311071497
 20
658.4433605311025
 42
-0.4142135623730951
 10
-190.2877311071497
 20
634.4433605311027
 10
-232.6255601158482
 20
634.4433605311027
 42
-0.4142135623731228
 10
-256.6255601158482
 20
658.4433605311049
 10
-256.6255601158409
 20
694.2251712112477
 42
-0.4142135623730955
  0
LINE
  5
177
102
{ACAD_XDICTIONARY
360
178
102
}
330
16C
100
AcDbEntity
  8
0
100
AcDbLine
 10
-303.6623486123863
 20
778.7586070388588
 30
0.0
 11
133.1772693677631
 21
778.7586070388588
 31
0.0
  0
LINE
  5
17A
102
{ACAD_XDICTIONARY
360
17B
102
}
330
16C
100
AcDbEntity
  8
0
100
AcDbLine
 10
-303.6623486123863
 20
281.9755850364872
 30
0.0
 11
133.1772693677631
 21
281.9755850364872
 31
0.0
  0
LWPOLYLINE
  5
17D
102
{ACAD_XDICTIONARY
360
17E
102
}
330
16C
100
AcDbEntity
  8
0
100
AcDbPolyline
 90
        8
 70
     1
 43
0.0
 10
-231.1926601141386
 20
569.6162091765577
 10
-188.8548311054474
 20
569.6162091765577
 42
-0.4142135623730951
 10
-164.8548311054474
 20
545.6162091765577
 10
-164.8548311054474
 20
509.8343984964126
 42
-0.4142135623730951
 10
-188.8548311054474
 20
485.8343984964126
 10
-231.1926601141458
 20
485.8343984964126
 42
-0.4142135623731228
 10
-255.1926601141458
 20
509.8343984964148
 10
-255.1926601141385
 20
545.6162091765577
 42
-0.4142135623730955
  0
LWPOLYLINE
  5
180
102
{ACAD_XDICTIONARY
360
181
102
}
330
16C
100
AcDbEntity
  8
0
100
AcDbPolyline
 90
        8
 70
     1
 43
0.0
 10
-232.6255601158409
 20
421.3147262000843
 10
-190.2877311071497
 20
421.3147262000843
 42
-0.4142135623730951
 10
-166.2877311071497
 20
397.3147262000844
 10
-166.2877311071497
 20
361.5329155199388
 42
-0.4142135623730951
 10
-190.2877311071497
 20
337.5329155199388
 10
-232.6255601158482
 20
337.5329155199388
 42
-0.4142135623731235
 10
-256.6255601158482
 20
361.5329155199412
 10
-256.6255601158409
 20
397.3147262000844
 42
-0.4142135623730955
  0
LWPOLYLINE
  5
183
102
{ACAD_XDICTIONARY
360
184
102
}
330
16C
100
AcDbEntity
  8
0
100
AcDbPolyline
 90
        8
 70
     1
 43
0.0
 10
-105.7790116978722
 20
716.7940778017833
 10
-63.44118268918101
 20
716.7940778017833
 42
-0.4142135623730951
 10
-39.44118268918101
 20
692.7940778017831
 10
-39.44118268918101
 20
657.012267121638
 42
-0.4142135623730951
 10
-63.44118268918101
 20
633.012267121638
 10
-105.7790116978794
 20
633.012267121638
 42
-0.414213562373123
 10
-129.7790116978794
 20
657.0122671216404
 10
-129.7790116978722
 20
692.7940778017831
 42
-0.4142135623730949
  0
LWPOLYLINE
  5
186
102
{ACAD_XDICTIONARY
360
187
102
}
330
16C
100
AcDbEntity
  8
0
100
AcDbPolyline
 90
        8
 70
     1
 43
0.0
 10
-104.3461116961698
 20
568.1851157670928
 10
-62.00828268747864
 20
568.1851157670928
 42
-0.4142135623730964
 10
-38.00828268747864
 20
544.1851157670932
 10
-38.00828268747864
 20
508.4033050869478
 42
-0.4142135623730951
 10
-62.00828268747864
 20
484.4033050869477
 10
-104.3461116961771
 20
484.4033050869477
 42
-0.4142135623731228
 10
-128.3461116961771
 20
508.4033050869501
 10
-128.3461116961698
 20
544.1851157670932
 42
-0.4142135623730964
  0
LWPOLYLINE
  5
189
102
{ACAD_XDICTIONARY
360
18A
102
}
330
16C
100
AcDbEntity
  8
0
100
AcDbPolyline
 90
        8
 70
     1
 43
0.0
 10
-105.7790116978722
 20
421.8273199080398
 10
-63.44118268918101
 20
421.8273199080398
 42
-0.4142135623730951
 10
-39.44118268918101
 20
397.8273199080399
 10
-39.44118268918101
 20
362.0455092278943
 42
-0.4142135623730951
 10
-63.44118268918101
 20
338.0455092278944
 10
-105.7790116978794
 20
338.0455092278944
 42
-0.414213562373123
 10
-129.7790116978794
 20
362.0455092278967
 10
-129.7790116978722
 20
397.8273199080399
 42
-0.4142135623730949
  0
LWPOLYLINE
  5
18C
102
{ACAD_XDICTIONARY
360
18D
102
}
330
16C
100
AcDbEntity
  8
0
100
AcDbPolyline
 90
        8
 70
     1
 43
0.0
 10
21.35885404159489
 20
715.362984392315
 10
63.69668305028607
 20
715.362984392315
 42
-0.4142135623730951
 10
87.69668305028607
 20
691.362984392315
 10
87.69668305028607
 20
655.5811737121699
 42
-0.4142135623730951
 10
63.69668305028607
 20
631.5811737121697
 10
21.35885404158762
 20
631.5811737121697
 42
-0.4142135623731228
 10
-2.641145958412379
 20
655.5811737121721
 10
-2.641145958405104
 20
691.362984392315
 42
-0.4142135623730951
  0
LWPOLYLINE
  5
18F
102
{ACAD_XDICTIONARY
360
190
102
}
330
16C
100
AcDbEntity
  8
0
100
AcDbPolyline
 90
        8
 70
     1
 43
0.0
 10
22.79175404329726
 20
566.6005004777836
 10
65.12958305198845
 20
566.6005004777836
 42
-0.4142135623730951
 10
89.12958305198845
 20
542.6005004777838
 10
89.12958305198845
 20
506.8186897976383
 42
-0.4142135623730951
 10
65.12958305198845
 20
482.8186897976384
 10
22.79175404328999
 20
482.8186897976384
 42
-0.4142135623731228
 10
-1.208245956710015
 20
506.8186897976405
 10
-1.208245956702739
 20
542.6005004777838
 42
-0.4142135623730951
  0
LWPOLYLINE
  5
192
102
{ACAD_XDICTIONARY
360
193
102
}
330
16C
100
AcDbEntity
  8
0
100
AcDbPolyline
 90
        8
 70
     1
 43
0.0
 10
21.35885404159489
 20
419.5525981456039
 10
63.69668305028607
 20
419.5525981456039
 42
-0.4142135623730951
 10
87.69668305028607
 20
395.552598145604
 10
87.69668305028607
 20
359.7707874654584
 42
-0.4142135623730951
 10
63.69668305028607
 20
335.7707874654584
 10
21.35885404158762
 20
335.7707874654584
 42
-0.4142135623731236
 10
-2.641145958412379
 20
359.7707874654607
 10
-2.641145958405104
 20
395.552598145604
 42
-0.4142135623730949
  0
CIRCLE
  5
195
330
16C
100
AcDbEntity
  8
0
370
     0
100
AcDbCircle
 10
-241.8612680370934
 20
229.3728540540087
 30
0.0
 40
39.09313664567162
  0
CIRCLE
  5
196
330
16C
100
AcDbEntity
  8
0
370
     0
100
AcDbCircle
 10
-130.8019891941294
 20
228.0905041336136
 30
0.0
 40
39.0931366456735
  0
CIRCLE
  5
197
330
16C
100
AcDbEntity
  8
0
370
     0
100
AcDbCircle
 10
-28.72998544130678
 20
228.09050413361
 30
0.0
 40
39.0931366456735
  0
CIRCLE
  5
198
330
16C
100
AcDbEntity
  8
0
370
     0
100
AcDbCircle
 10
78.41457890825406
 20
229.3728540540087
 30
0.0
 40
39.09313664567349
  0
INSERT
  5
199
330
16C
100
AcDbEntity
  8
0
100
AcDbBlockReference
  2
Pfeil
 10
-3.452272047165023
 20
228.5835268435167
 30
0.0
 41
50.0
 42
49.99999999999997
 43
50.0
  0
INSERT
  5
1AE
330
16C
100
AcDbEntity
  8
0
100
AcDbBlockReference
  2
Pfeil
 10
156.9297775405503
 20
227.6888388698699
 30
0.0
 41
50.0
 42
49.99999999999997
 43
-50.00000000000002
210
0.0
220
0.0
230
-1.0
  0
INSERT
  5
1AF
330
16C
100
AcDbEntity
  8
0
100
AcDbBlockReference
  2
Lampe
 10
46.16053940068377
 20
491.1344390144591
 30
0.0
 41
0.1500000000014552
 42
0.1500000000000909
 43
0.15
  0
INSERT
  5
20A
330
16C
100
AcDbEntity
  8
0
100
AcDbBlockReference
  2
TV
 10
20.79422194349172
 20
653.1352632826382
 30
0.0
 41
0.0576000000000931
 42
0.0576000000000931
 43
0.0576
  0
LINE
  5
2A2
102
{ACAD_XDICTIONARY
360
2A3
102
}
330
16C
100
AcDbEntity
  8
0
100
AcDbLine
 10
44.30553154497466
 20
687.728864331887
 30
0.0
 11
62.13383015558793
 21
700.3961982776336
 31
0.0
  0
LINE
  5
2A5
102
{ACAD_XDICTIONARY
360
2A6
102
}
330
16C
100
AcDbEntity
  8
0
100
AcDbLine
 10
44.30553154497466
 20
687.728864331887
 30
0.0
 11
28.96444414873258
 21
699.3040540320516
 31
0.0
  0
ARC
  5
2A8
102
{ACAD_XDICTIONARY
360
2A9
102
}
330
16C
100
AcDbEntity
  8
0
100
AcDbCircle
 10
-210.5681424240247
 20
668.580199978528
 30
-0.0011999267567401
 40
28.20739492579376
100
AcDbArc
 50
0.0
 51
180.0
  0
LINE
  5
2AB
102
{ACAD_XDICTIONARY
360
2AC
102
}
330
16C
100
AcDbEntity
  8
0
100
AcDbLine
 10
-238.7755373498148
 20
668.580199978528
 30
-0.0011999267567401
 11
-182.3607474982273
 21
668.580199978528
 31
-0.0011999267567401
  0
LINE
  5
2AE
102
{ACAD_XDICTIONARY
360
2AF
102
}
330
16C
100
AcDbEntity
  8
0
100
AcDbLine
 10
-210.5681424240247
 20
696.7875949043217
 30
-0.0011999267567401
 11
-210.5681424240247
 21
717.6513092340599
 31
-0.0011999267567401
  0
LINE
  5
2B1
102
{ACAD_XDICTIONARY
360
2B2
102
}
330
16C
100
AcDbEntity
  8
0
100
AcDbLine
 10
-230.2823967485383
 20
664.0262154984566
 30
-0.0011999267567401
 11
-238.2234755922036
 21
657.1929574576797
 31
0.0
  0
LINE
  5
2B4
102
{ACAD_XDICTIONARY
360
2B5
102
}
330
16C
100
AcDbEntity
  8
0
100
AcDbLine
 10
-227.6245649777775
 20
656.3730553483201
 30
0.0
 11
-232.185198666848
 21
651.13478898635
 31
0.0
  0
LINE
  5
2B7
102
{ACAD_XDICTIONARY
360
2B8
102
}
330
16C
100
AcDbEntity
  8
0
100
AcDbLine
 10
-192.3753789353286
 20
656.5006027665331
 30
0.0
 11
-188.0427798181917
 21
651.9455869257199
 31
0.0
  0
LINE
  5
2BA
102
{ACAD_XDICTIONARY
360
2BB
102
}
330
16C
100
AcDbEntity
  8
0
100
AcDbLine
 10
-188.3209604360381
 20
663.4014449019922
 30
0.0
 11
-182.3921385652283
 21
660.440682750498
 31
0.0
  0
ARC
  5
2BD
102
{ACAD_XDICTIONARY
360
2BE
102
}
330
16C
100
AcDbEntity
  8
0
100
AcDbCircle
 10
-209.899968613543
 20
668.6380417951359
 30
0.0
 40
17.6693947388105
100
AcDbArc
 50
180.1875614835132
 51
359.8124385164865
  0
LINE
  5
2C0
102
{ACAD_XDICTIONARY
360
2C1
102
}
330
16C
100
AcDbEntity
  8
0
100
AcDbLine
 10
-199.7987839734633
 20
651.1867873753462
 30
0.0
 11
-196.0636254248602
 21
645.160494628778
 31
0.0
  0
LINE
  5
2C3
102
{ACAD_XDICTIONARY
360
2C4
102
}
330
16C
100
AcDbEntity
  8
0
100
AcDbLine
 10
-220.4858470310064
 20
649.7519568289998
 30
0.0
 11
-223.3590518376077
 21
645.160494628778
 31
0.0
  0
LINE
  5
2C6
102
{ACAD_XDICTIONARY
360
2C7
102
}
330
16C
100
AcDbEntity
  8
0
100
AcDbLine
 10
-209.8550007965532
 20
646.5953251751232
 30
0.0
 11
-209.8550007965532
 21
638.8472313210233
 31
0.0
  0
CIRCLE
  5
2C9
330
16C
100
AcDbEntity
  8
0
370
     0
100
AcDbCircle
 10
-221.8035457482256
 20
364.2596185284001
 30
0.0
 40
9.305935742772817
  0
CIRCLE
  5
2CA
330
16C
100
AcDbEntity
  8
0
370
     0
100
AcDbCircle
 10
-225.582209889777
 20
365.4385858374703
 30
0.0
 40
1.439758233448288
  0
CIRCLE
  5
2CB
330
16C
100
AcDbEntity
  8
0
370
     0
100
AcDbCircle
 10
-218.3721933131892
 20
366.1244018499192
 30
0.0
 40
1.439758233448288
  0
ARC
  5
2CC
102
{ACAD_XDICTIONARY
360
2CD
102
}
330
16C
100
AcDbEntity
  8
0
100
AcDbCircle
 10
-221.5489478243908
 20
360.7469635212124
 30
0.0
 40
3.035072920666579
100
AcDbArc
 50
189.8623224236128
 51
10.772140873154
  0
CIRCLE
  5
2CF
330
16C
100
AcDbEntity
  8
0
370
     0
100
AcDbCircle
 10
-197.6858559378379
 20
369.4496303449418
 30
0.0
 40
15.50989290462132
  0
CIRCLE
  5
2D0
330
16C
100
AcDbEntity
  8
0
370
     0
100
AcDbCircle
 10
-204.2465275469076
 20
370.1428480920945
 30
0.0
 40
2.399597055747165
  0
CIRCLE
  5
2D1
330
16C
100
AcDbEntity
  8
0
370
     0
100
AcDbCircle
 10
-192.6865472212957
 20
373.6176583952292
 30
0.0
 40
2.399597055747165
  0
ARC
  5
2D2
102
{ACAD_XDICTIONARY
360
2D3
102
}
330
16C
100
AcDbEntity
  8
0
100
AcDbCircle
 10
-196.1229342861406
 20
363.7917487649961
 30
0.0
 40
5.058454867777646
100
AcDbArc
 50
201.1589355174759
 51
22.06875396709171
  0
CIRCLE
  5
2D5
330
16C
100
AcDbEntity
  8
0
370
     0
100
AcDbCircle
 10
-219.7066348422741
 20
386.0792608724414
 30
0.0
 40
12.40791432369707
  0
CIRCLE
  5
2D6
330
16C
100
AcDbEntity
  8
0
370
     0
100
AcDbCircle
 10
-224.7448536976663
 20
387.6512172845346
 30
0.0
 40
1.919677644597755
  0
CIRCLE
  5
2D7
330
16C
100
AcDbEntity
  8
0
370
     0
100
AcDbCircle
 10
-215.1314982622134
 20
388.5656386344667
 30
0.0
 40
1.919677644597755
  0
ARC
  5
2D8
102
{ACAD_XDICTIONARY
360
2D9
102
}
330
16C
100
AcDbEntity
  8
0
100
AcDbCircle
 10
-219.3671709438277
 20
381.3957208628576
 30
0.0
 40
4.046763894222137
100
AcDbArc
 50
189.8623224236389
 51
10.77214087317931
  0
POLYLINE
  5
2DB
330
16C
100
AcDbEntity
  8
0
370
     0
100
AcDb2dPolyline
 66
     1
 10
0.0
 20
0.0
 30
0.0
 70
   132
 75
     6
  0
VERTEX
  5
2DC
330
2DB
100
AcDbEntity
  8
0
100
AcDbVertex
100
AcDb2dVertex
 10
-60.89551065442356
 20
536.1112248470625
 30
0.0
 70
    16
  0
VERTEX
  5
2DD
330
2DB
100
AcDbEntity
  8
0
100
AcDbVertex
100
AcDb2dVertex
 10
-59.30562472515064
 20
537.9803702697259
 30
0.0
 70
    16
  0
VERTEX
  5
2DE
330
2DB
100
AcDbEntity
  8
0
100
AcDbVertex
100
AcDb2dVertex
 10
-56.09786953933565
 20
541.7515596438795
 30
0.0
 70
    16
  0
VERTEX
  5
2DF
330
2DB
100
AcDbEntity
  8
0
100
AcDbVertex
100
AcDb2dVertex
 10
-49.30749476035684
 20
532.2310271350354
 30
0.0
 70
    16
  0
VERTEX
  5
2E0
330
2DB
100
AcDbEntity
  8
0
100
AcDbVertex
100
AcDb2dVertex
 10
-55.22827744032296
 20
527.8775186078068
 30
0.0
 70
    16
  0
VERTEX
  5
2E1
330
2DB
100
AcDbEntity
  8
0
100
AcDbVertex
100
AcDb2dVertex
 10
-59.17655437470966
 20
524.9743792374202
 30
0.0
 70
    16
  0
VERTEX
  5
2E2
330
2DB
100
AcDbEntity
  8
0
100
AcDbVertex
100
AcDb2dVertex
 10
-60.89551065442356
 20
536.1112248470625
 30
0.0
 70
     8
  0
VERTEX
  5
2E3
330
2DB
100
AcDbEntity
  8
0
100
AcDbVertex
100
AcDb2dVertex
 10
-60.29803077743651
 20
536.8079527796235
 30
0.0
 70
     8
  0
VERTEX
  5
2E4
330
2DB
100
AcDbEntity
  8
0
100
AcDbVertex
100
AcDb2dVertex
 10
-59.69553841632268
 20
537.4763868694798
 30
0.0
 70
     8
  0
VERTEX
  5
2E5
330
2DB
100
AcDbEntity
  8
0
100
AcDbVertex
100
AcDb2dVertex
 10
-59.08433280542105
 20
538.0866911553885
 30
0.0
 70
     8
  0
VERTEX
  5
2E6
330
2DB
100
AcDbEntity
  8
0
100
AcDbVertex
100
AcDb2dVertex
 10
-58.46071317907057
 20
538.609029676106
 30
0.0
 70
     8
  0
VERTEX
  5
2E7
330
2DB
100
AcDbEntity
  8
0
100
AcDbVertex
100
AcDb2dVertex
 10
-57.82097877161022
 20
539.0135664703893
 30
0.0
 70
     8
  0
VERTEX
  5
2E8
330
2DB
100
AcDbEntity
  8
0
100
AcDbVertex
100
AcDb2dVertex
 10
-57.16142881737897
 20
539.270465576995
 30
0.0
 70
     8
  0
VERTEX
  5
2E9
330
2DB
100
AcDbEntity
  8
0
100
AcDbVertex
100
AcDb2dVertex
 10
-56.47836255071578
 20
539.3498910346797
 30
0.0
 70
     8
  0
VERTEX
  5
2EA
330
2DB
100
AcDbEntity
  8
0
100
AcDbVertex
100
AcDb2dVertex
 10
-55.76807920595962
 20
539.2220068822003
 30
0.0
 70
     8
  0
VERTEX
  5
2EB
330
2DB
100
AcDbEntity
  8
0
100
AcDbVertex
100
AcDb2dVertex
 10
-55.03324034909578
 20
538.867863746349
 30
0.0
 70
     8
  0
VERTEX
  5
2EC
330
2DB
100
AcDbEntity
  8
0
100
AcDbVertex
100
AcDb2dVertex
 10
-54.30195687269513
 20
538.3120586060589
 30
0.0
 70
     8
  0
VERTEX
  5
2ED
330
2DB
100
AcDbEntity
  8
0
100
AcDbVertex
100
AcDb2dVertex
 10
-53.60870200097478
 20
537.5900750282996
 30
0.0
 70
     8
  0
VERTEX
  5
2EE
330
2DB
100
AcDbEntity
  8
0
100
AcDbVertex
100
AcDb2dVertex
 10
-52.9879489581519
 20
536.7373965800393
 30
0.0
 70
     8
  0
VERTEX
  5
2EF
330
2DB
100
AcDbEntity
  8
0
100
AcDbVertex
100
AcDb2dVertex
 10
-52.47417096844364
 20
535.7895068282472
 30
0.0
 70
     8
  0
VERTEX
  5
2F0
330
2DB
100
AcDbEntity
  8
0
100
AcDbVertex
100
AcDb2dVertex
 10
-52.10184125606717
 20
534.7818893398921
 30
0.0
 70
     8
  0
VERTEX
  5
2F1
330
2DB
100
AcDbEntity
  8
0
100
AcDbVertex
100
AcDb2dVertex
 10
-51.90543304523963
 20
533.7500276819432
 30
0.0
 70
     8
  0
VERTEX
  5
2F2
330
2DB
100
AcDbEntity
  8
0
100
AcDbVertex
100
AcDb2dVertex
 10
-51.91941956017818
 20
532.729405421369
 30
0.0
 70
     8
  0
VERTEX
  5
2F3
330
2DB
100
AcDbEntity
  8
0
100
AcDbVertex
100
AcDb2dVertex
 10
-52.16935653615737
 20
531.7472000813084
 30
0.0
 70
     8
  0
VERTEX
  5
2F4
330
2DB
100
AcDbEntity
  8
0
100
AcDbVertex
100
AcDb2dVertex
 10
-52.64512975268132
 20
530.7973650095785
 30
0.0
 70
     8
  0
VERTEX
  5
2F5
330
2DB
100
AcDbEntity
  8
0
100
AcDbVertex
100
AcDb2dVertex
 10
-53.32770750031155
 20
529.8655475101663
 30
0.0
 70
     8
  0
VERTEX
  5
2F6
330
2DB
100
AcDbEntity
  8
0
100
AcDbVertex
100
AcDb2dVertex
 10
-54.19805806960956
 20
528.9373948870592
 30
0.0
 70
     8
  0
VERTEX
  5
2F7
330
2DB
100
AcDbEntity
  8
0
100
AcDbVertex
100
AcDb2dVertex
 10
-55.23714975113688
 20
527.9985544442441
 30
0.0
 70
     8
  0
VERTEX
  5
2F8
330
2DB
100
AcDbEntity
  8
0
100
AcDbVertex
100
AcDb2dVertex
 10
-56.42595083545498
 20
527.0346734857077
 30
0.0
 70
     8
  0
VERTEX
  5
2F9
330
2DB
100
AcDbEntity
  8
0
100
AcDbVertex
100
AcDb2dVertex
 10
-57.74542961312542
 20
526.0313993154376
 30
0.0
 70
     8
  0
VERTEX
  5
2FA
330
2DB
100
AcDbEntity
  8
0
100
AcDbVertex
100
AcDb2dVertex
 10
-59.17655437470968
 20
524.9743792374203
 30
0.0
 70
     8
  0
SEQEND
  5
2FB
330
2DB
100
AcDbEntity
  8
0
370
     0
  0
ARC
  5
2FC
102
{ACAD_XDICTIONARY
360
2FD
102
}
330
16C
100
AcDbEntity
  8
0
100
AcDbCircle
 10
-68.22500950619724
 20
529.2788450909156
 30
0.0
 40
10.02012807056667
100
AcDbArc
 50
317.9679827898788
 51
55.09225994770122
  0
ARC
  5
2FF
102
{ACAD_XDICTIONARY
360
300
102
}
330
16C
100
AcDbEntity
  8
0
100
AcDbCircle
 10
-71.5428314033561
 20
529.8581058489943
 30
0.0
 40
9.650211293778465
100
AcDbArc
 50
127.6755533922593
 51
229.0460694853766
  0
POLYLINE
  5
302
330
16C
100
AcDbEntity
  8
0
370
     0
100
AcDb2dPolyline
 66
     1
 10
0.0
 20
0.0
 30
0.0
 70
   132
 75
     6
  0
VERTEX
  5
303
330
302
100
AcDbEntity
  8
0
100
AcDbVertex
100
AcDb2dVertex
 10
-59.55426022061146
 20
534.3009037700539
 30
0.0
 70
    16
  0
VERTEX
  5
304
330
302
100
AcDbEntity
  8
0
100
AcDbVertex
100
AcDb2dVertex
 10
-58.57975893838994
 20
535.5078478971009
 30
0.0
 70
    16
  0
VERTEX
  5
305
330
302
100
AcDbEntity
  8
0
100
AcDbVertex
100
AcDb2dVertex
 10
-56.58388463426992
 20
537.9797879690425
 30
0.0
 70
    16
  0
VERTEX
  5
306
330
302
100
AcDbEntity
  8
0
100
AcDbVertex
100
AcDb2dVertex
 10
-52.33702512412233
 20
533.065435238354
 30
0.0
 70
    16
  0
VERTEX
  5
307
330
302
100
AcDbEntity
  8
0
100
AcDbVertex
100
AcDb2dVertex
 10
-58.10039502920046
 20
527.4472869882754
 30
0.0
 70
    16
  0
VERTEX
  5
308
330
302
100
AcDbEntity
  8
0
100
AcDbVertex
100
AcDb2dVertex
 10
-58.2048814356458
 20
529.2788450909156
 30
0.0
 70
    16
  0
VERTEX
  5
309
330
302
100
AcDbEntity
  8
0
100
AcDbVertex
100
AcDb2dVertex
 10
-59.55426022061146
 20
534.3009037700539
 30
0.0
 70
     8
  0
VERTEX
  5
30A
330
302
100
AcDbEntity
  8
0
100
AcDbVertex
100
AcDb2dVertex
 10
-59.18736156331625
 20
534.7520049897646
 30
0.0
 70
     8
  0
VERTEX
  5
30B
330
302
100
AcDbEntity
  8
0
100
AcDbVertex
100
AcDb2dVertex
 10
-58.81609307284296
 20
535.1886468839599
 30
0.0
 70
     8
  0
VERTEX
  5
30C
330
302
100
AcDbEntity
  8
0
100
AcDbVertex
100
AcDb2dVertex
 10
-58.43828202881084
 20
535.5936489481633
 30
0.0
 70
     8
  0
VERTEX
  5
30D
330
302
100
AcDbEntity
  8
0
100
AcDbVertex
100
AcDb2dVertex
 10
-58.05175571083915
 20
535.9498306778976
 30
0.0
 70
     8
  0
VERTEX
  5
30E
330
302
100
AcDbEntity
  8
0
100
AcDbVertex
100
AcDb2dVertex
 10
-57.65434139854715
 20
536.2400115686862
 30
0.0
 70
     8
  0
VERTEX
  5
30F
330
302
100
AcDbEntity
  8
0
100
AcDbVertex
100
AcDb2dVertex
 10
-57.24386637155413
 20
536.4470111160522
 30
0.0
 70
     8
  0
VERTEX
  5
310
330
302
100
AcDbEntity
  8
0
100
AcDbVertex
100
AcDb2dVertex
 10
-56.81815790947934
 20
536.5536488155187
 30
0.0
 70
     8
  0
VERTEX
  5
311
330
302
100
AcDbEntity
  8
0
100
AcDbVertex
100
AcDb2dVertex
 10
-56.37504329194203
 20
536.5427441626091
 30
0.0
 70
     8
  0
VERTEX
  5
312
330
302
100
AcDbEntity
  8
0
100
AcDbVertex
100
AcDb2dVertex
 10
-55.91731639857989
 20
536.4016432841894
 30
0.0
 70
     8
  0
VERTEX
  5
313
330
302
100
AcDbEntity
  8
0
100
AcDbVertex
100
AcDb2dVertex
 10
-55.46763750910448
 20
536.1357988324988
 30
0.0
 70
     8
  0
VERTEX
  5
314
330
302
100
AcDbEntity
  8
0
100
AcDbVertex
100
AcDb2dVertex
 10
-55.05363350324572
 20
535.7551900911201
 30
0.0
 70
     8
  0
VERTEX
  5
315
330
302
100
AcDbEntity
  8
0
100
AcDbVertex
100
AcDb2dVertex
 10
-54.70293126073357
 20
535.2697963436351
 30
0.0
 70
     8
  0
VERTEX
  5
316
330
302
100
AcDbEntity
  8
0
100
AcDbVertex
100
AcDb2dVertex
 10
-54.44315766129795
 20
534.6895968736267
 30
0.0
 70
     8
  0
VERTEX
  5
317
330
302
100
AcDbEntity
  8
0
100
AcDbVertex
100
AcDb2dVertex
 10
-54.30193958466882
 20
534.0245709646767
 30
0.0
 70
     8
  0
VERTEX
  5
318
330
302
100
AcDbEntity
  8
0
100
AcDbVertex
100
AcDb2dVertex
 10
-54.30690391057611
 20
533.284697900368
 30
0.0
 70
     8
  0
VERTEX
  5
319
330
302
100
AcDbEntity
  8
0
100
AcDbVertex
100
AcDb2dVertex
 10
-54.4856775187498
 20
532.4799569642826
 30
0.0
 70
     8
  0
VERTEX
  5
31A
330
302
100
AcDbEntity
  8
0
100
AcDbVertex
100
AcDb2dVertex
 10
-54.85166200634621
 20
531.6288714731462
 30
0.0
 70
     8
  0
VERTEX
  5
31B
330
302
100
AcDbEntity
  8
0
100
AcDbVertex
100
AcDb2dVertex
 10
-55.36135784022738
 20
530.7841408762581
 30
0.0
 70
     8
  0
VERTEX
  5
31C
330
302
100
AcDbEntity
  8
0
100
AcDbVertex
100
AcDb2dVertex
 10
-55.95704020468171
 20
530.0070086560605
 30
0.0
 70
     8
  0
VERTEX
  5
31D
330
302
100
AcDbEntity
  8
0
100
AcDbVertex
100
AcDb2dVertex
 10
-56.58098428399764
 20
529.3587182949962
 30
0.0
 70
     8
  0
VERTEX
  5
31E
330
302
100
AcDbEntity
  8
0
100
AcDbVertex
100
AcDb2dVertex
 10
-57.17546526246361
 20
528.9005132755071
 30
0.0
 70
     8
  0
VERTEX
  5
31F
330
302
100
AcDbEntity
  8
0
100
AcDbVertex
100
AcDb2dVertex
 10
-57.682758324368
 20
528.6936370800356
 30
0.0
 70
     8
  0
VERTEX
  5
320
330
302
100
AcDbEntity
  8
0
100
AcDbVertex
100
AcDb2dVertex
 10
-58.04513865399926
 20
528.7993331910243
 30
0.0
 70
     8
  0
VERTEX
  5
321
330
302
100
AcDbEntity
  8
0
100
AcDbVertex
100
AcDb2dVertex
 10
-58.2048814356458
 20
529.2788450909158
 30
0.0
 70
     8
  0
SEQEND
  5
322
330
302
100
AcDbEntity
  8
0
370
     0
  0
LINE
  5
323
102
{ACAD_XDICTIONARY
360
324
102
}
330
16C
100
AcDbEntity
  8
0
100
AcDbLine
 10
-86.83809014361759
 20
522.5699106718184
 30
0.0
 11
-53.94805920639918
 21
522.5699106718184
 31
0.0
  0
ARC
  5
326
102
{ACAD_XDICTIONARY
360
327
102
}
330
16C
100
AcDbEntity
  8
0
100
AcDbCircle
 10
-79.31254200870899
 20
526.3572693947187
 30
0.0
 40
8.424841887320126
100
AcDbArc
 50
206.7145956912476
 51
268.2035225841
  0
ARC
  5
329
102
{ACAD_XDICTIONARY
360
32A
102
}
330
16C
100
AcDbEntity
  8
0
100
AcDbCircle
 10
-60.59603892823361
 20
524.9819325929966
 30
0.0
 40
7.072021219565277
100
AcDbArc
 50
265.0236805197191
 51
340.0582012057778
  0
LINE
  5
32C
102
{ACAD_XDICTIONARY
360
32D
102
}
330
16C
100
AcDbEntity
  8
0
100
AcDbLine
 10
-79.57665497763809
 20
517.9365684045359
 30
0.0
 11
-61.20949437237868
 21
517.9365684045359
 31
0.0
  0
LINE
  5
32F
102
{ACAD_XDICTIONARY
360
330
102
}
330
16C
100
AcDbEntity
  8
0
100
AcDbLine
 10
-62.49092446348368
 20
537.4960973855304
 30
0.0
 11
-77.44093815913948
 21
537.4960973855304
 31
0.0
  0
POLYLINE
  5
332
330
16C
100
AcDbEntity
  8
0
370
     0
100
AcDb2dPolyline
 66
     1
 10
0.0
 20
0.0
 30
0.0
 70
   132
 75
     6
  0
VERTEX
  5
333
330
332
100
AcDbEntity
  8
0
100
AcDbVertex
100
AcDb2dVertex
 10
-108.7002834964878
 20
528.7705113624467
 30
0.0
 70
    16
  0
VERTEX
  5
334
330
332
100
AcDbEntity
  8
0
100
AcDbVertex
100
AcDb2dVertex
 10
-110.2901694257493
 20
530.6396567851052
 30
0.0
 70
    16
  0
VERTEX
  5
335
330
332
100
AcDbEntity
  8
0
100
AcDbVertex
100
AcDb2dVertex
 10
-113.4979246115499
 20
534.4108461592596
 30
0.0
 70
    16
  0
VERTEX
  5
336
330
332
100
AcDbEntity
  8
0
100
AcDbVertex
100
AcDb2dVertex
 10
-120.2882993905494
 20
524.8903136504218
 30
0.0
 70
    16
  0
VERTEX
  5
337
330
332
100
AcDbEntity
  8
0
100
AcDbVertex
100
AcDb2dVertex
 10
-114.3675167105766
 20
520.5368051231907
 30
0.0
 70
    16
  0
VERTEX
  5
338
330
332
100
AcDbEntity
  8
0
100
AcDbVertex
100
AcDb2dVertex
 10
-110.4192397761871
 20
517.6336657528036
 30
0.0
 70
    16
  0
VERTEX
  5
339
330
332
100
AcDbEntity
  8
0
100
AcDbVertex
100
AcDb2dVertex
 10
-108.7002834964878
 20
528.7705113624467
 30
0.0
 70
     8
  0
VERTEX
  5
33A
330
332
100
AcDbEntity
  8
0
100
AcDbVertex
100
AcDb2dVertex
 10
-109.2977633734708
 20
529.4672392950059
 30
0.0
 70
     8
  0
VERTEX
  5
33B
330
332
100
AcDbEntity
  8
0
100
AcDbVertex
100
AcDb2dVertex
 10
-109.900255734581
 20
530.1356733848613
 30
0.0
 70
     8
  0
VERTEX
  5
33C
330
332
100
AcDbEntity
  8
0
100
AcDbVertex
100
AcDb2dVertex
 10
-110.5114613454794
 20
530.7459776707691
 30
0.0
 70
     8
  0
VERTEX
  5
33D
330
332
100
AcDbEntity
  8
0
100
AcDbVertex
100
AcDb2dVertex
 10
-111.1350809718272
 20
531.2683161914863
 30
0.0
 70
     8
  0
VERTEX
  5
33E
330
332
100
AcDbEntity
  8
0
100
AcDbVertex
100
AcDb2dVertex
 10
-111.7748153792854
 20
531.6728529857694
 30
0.0
 70
     8
  0
VERTEX
  5
33F
330
332
100
AcDbEntity
  8
0
100
AcDbVertex
100
AcDb2dVertex
 10
-112.434365333515
 20
531.9297520923752
 30
0.0
 70
     8
  0
VERTEX
  5
340
330
332
100
AcDbEntity
  8
0
100
AcDbVertex
100
AcDb2dVertex
 10
-113.1174316001772
 20
532.0091775500603
 30
0.0
 70
     8
  0
VERTEX
  5
341
330
332
100
AcDbEntity
  8
0
100
AcDbVertex
100
AcDb2dVertex
 10
-113.8277149449329
 20
531.8812933975814
 30
0.0
 70
     8
  0
VERTEX
  5
342
330
332
100
AcDbEntity
  8
0
100
AcDbVertex
100
AcDb2dVertex
 10
-114.5625538017971
 20
531.5271502617304
 30
0.0
 70
     8
  0
VERTEX
  5
343
330
332
100
AcDbEntity
  8
0
100
AcDbVertex
100
AcDb2dVertex
 10
-115.2938372781985
 20
530.971345121441
 30
0.0
 70
     8
  0
VERTEX
  5
344
330
332
100
AcDbEntity
  8
0
100
AcDbVertex
100
AcDb2dVertex
 10
-115.98709214992
 20
530.2493615436821
 30
0.0
 70
     8
  0
VERTEX
  5
345
330
332
100
AcDbEntity
  8
0
100
AcDbVertex
100
AcDb2dVertex
 10
-116.6078451927442
 20
529.3966830954224
 30
0.0
 70
     8
  0
VERTEX
  5
346
330
332
100
AcDbEntity
  8
0
100
AcDbVertex
100
AcDb2dVertex
 10
-117.121623182454
 20
528.4487933436309
 30
0.0
 70
     8
  0
VERTEX
  5
347
330
332
100
AcDbEntity
  8
0
100
AcDbVertex
100
AcDb2dVertex
 10
-117.4939528948318
 20
527.4411758552764
 30
0.0
 70
     8
  0
VERTEX
  5
348
330
332
100
AcDbEntity
  8
0
100
AcDbVertex
100
AcDb2dVertex
 10
-117.6903611056606
 20
526.4093141973276
 30
0.0
 70
     8
  0
VERTEX
  5
349
330
332
100
AcDbEntity
  8
0
100
AcDbVertex
100
AcDb2dVertex
 10
-117.6763745907229
 20
525.3886919367537
 30
0.0
 70
     8
  0
VERTEX
  5
34A
330
332
100
AcDbEntity
  8
0
100
AcDbVertex
100
AcDb2dVertex
 10
-117.4264376147442
 20
524.406486596693
 30
0.0
 70
     8
  0
VERTEX
  5
34B
330
332
100
AcDbEntity
  8
0
100
AcDbVertex
100
AcDb2dVertex
 10
-116.9506643982203
 20
523.4566515249629
 30
0.0
 70
     8
  0
VERTEX
  5
34C
330
332
100
AcDbEntity
  8
0
100
AcDbVertex
100
AcDb2dVertex
 10
-116.2680866505897
 20
522.524834025551
 30
0.0
 70
     8
  0
VERTEX
  5
34D
330
332
100
AcDbEntity
  8
0
100
AcDbVertex
100
AcDb2dVertex
 10
-115.3977360812911
 20
521.5966814024436
 30
0.0
 70
     8
  0
VERTEX
  5
34E
330
332
100
AcDbEntity
  8
0
100
AcDbVertex
100
AcDb2dVertex
 10
-114.358644399763
 20
520.6578409596281
 30
0.0
 70
     8
  0
VERTEX
  5
34F
330
332
100
AcDbEntity
  8
0
100
AcDbVertex
100
AcDb2dVertex
 10
-113.1698433154439
 20
519.6939600010915
 30
0.0
 70
     8
  0
VERTEX
  5
350
330
332
100
AcDbEntity
  8
0
100
AcDbVertex
100
AcDb2dVertex
 10
-111.8503645377724
 20
518.6906858308209
 30
0.0
 70
     8
  0
VERTEX
  5
351
330
332
100
AcDbEntity
  8
0
100
AcDbVertex
100
AcDb2dVertex
 10
-110.4192397761871
 20
517.6336657528036
 30
0.0
 70
     8
  0
SEQEND
  5
352
330
332
100
AcDbEntity
  8
0
370
     0
  0
ARC
  5
353
102
{ACAD_XDICTIONARY
360
354
102
}
330
16C
100
AcDbEntity
  8
0
100
AcDbCircle
 10
-101.3707846447069
 20
521.9381316063
 30
0.0
 40
10.02012807056667
100
AcDbArc
 50
124.9077400522989
 51
222.0320172102183
  0
ARC
  5
356
102
{ACAD_XDICTIONARY
360
357
102
}
330
16C
100
AcDbEntity
  8
0
100
AcDbCircle
 10
-98.05296274754072
 20
522.5173923643787
 30
0.0
 40
9.6502112937785
100
AcDbArc
 50
310.9539305146236
 51
52.32444660774053
  0
POLYLINE
  5
359
330
16C
100
AcDbEntity
  8
0
370
     0
100
AcDb2dPolyline
 66
     1
 10
0.0
 20
0.0
 30
0.0
 70
   132
 75
     6
  0
VERTEX
  5
35A
330
359
100
AcDbEntity
  8
0
100
AcDbVertex
100
AcDb2dVertex
 10
-110.0415339302999
 20
526.9601902854365
 30
0.0
 70
    16
  0
VERTEX
  5
35B
330
359
100
AcDbEntity
  8
0
100
AcDbVertex
100
AcDb2dVertex
 10
-111.0160352125224
 20
528.1671344124857
 30
0.0
 70
    16
  0
VERTEX
  5
35C
330
359
100
AcDbEntity
  8
0
100
AcDbVertex
100
AcDb2dVertex
 10
-113.0119095166423
 20
530.6390744844288
 30
0.0
 70
    16
  0
VERTEX
  5
35D
330
359
100
AcDbEntity
  8
0
100
AcDbVertex
100
AcDb2dVertex
 10
-117.2587690267704
 20
525.7247217537249
 30
0.0
 70
    16
  0
VERTEX
  5
35E
330
359
100
AcDbEntity
  8
0
100
AcDbVertex
100
AcDb2dVertex
 10
-111.495399121682
 20
520.1065735036564
 30
0.0
 70
    16
  0
VERTEX
  5
35F
330
359
100
AcDbEntity
  8
0
100
AcDbVertex
100
AcDb2dVertex
 10
-111.3909127152365
 20
521.9381316063
 30
0.0
 70
    16
  0
VERTEX
  5
360
330
359
100
AcDbEntity
  8
0
100
AcDbVertex
100
AcDb2dVertex
 10
-110.0415339302999
 20
526.9601902854365
 30
0.0
 70
     8
  0
VERTEX
  5
361
330
359
100
AcDbEntity
  8
0
100
AcDbVertex
100
AcDb2dVertex
 10
-110.4084325875954
 20
527.411291505148
 30
0.0
 70
     8
  0
VERTEX
  5
362
330
359
100
AcDbEntity
  8
0
100
AcDbVertex
100
AcDb2dVertex
 10
-110.7797010780689
 20
527.8479333993438
 30
0.0
 70
     8
  0
VERTEX
  5
363
330
359
100
AcDbEntity
  8
0
100
AcDbVertex
100
AcDb2dVertex
 10
-111.1575121221011
 20
528.2529354635475
 30
0.0
 70
     8
  0
VERTEX
  5
364
330
359
100
AcDbEntity
  8
0
100
AcDbVertex
100
AcDb2dVertex
 10
-111.5440384400726
 20
528.6091171932821
 30
0.0
 70
     8
  0
VERTEX
  5
365
330
359
100
AcDbEntity
  8
0
100
AcDbVertex
100
AcDb2dVertex
 10
-111.9414527523643
 20
528.8992980840708
 30
0.0
 70
     8
  0
VERTEX
  5
366
330
359
100
AcDbEntity
  8
0
100
AcDbVertex
100
AcDb2dVertex
 10
-112.3519277793568
 20
529.1062976314365
 30
0.0
 70
     8
  0
VERTEX
  5
367
330
359
100
AcDbEntity
  8
0
100
AcDbVertex
100
AcDb2dVertex
 10
-112.7776362414308
 20
529.2129353309026
 30
0.0
 70
     8
  0
VERTEX
  5
368
330
359
100
AcDbEntity
  8
0
100
AcDbVertex
100
AcDb2dVertex
 10
-113.220750858967
 20
529.2020306779921
 30
0.0
 70
     8
  0
VERTEX
  5
369
330
359
100
AcDbEntity
  8
0
100
AcDbVertex
100
AcDb2dVertex
 10
-113.6784777523278
 20
529.0609297995718
 30
0.0
 70
     8
  0
VERTEX
  5
36A
330
359
100
AcDbEntity
  8
0
100
AcDbVertex
100
AcDb2dVertex
 10
-114.1281566418015
 20
528.7950853478803
 30
0.0
 70
     8
  0
VERTEX
  5
36B
330
359
100
AcDbEntity
  8
0
100
AcDbVertex
100
AcDb2dVertex
 10
-114.5421606476584
 20
528.4144766065001
 30
0.0
 70
     8
  0
VERTEX
  5
36C
330
359
100
AcDbEntity
  8
0
100
AcDbVertex
100
AcDb2dVertex
 10
-114.8928628901686
 20
527.929082859014
 30
0.0
 70
     8
  0
VERTEX
  5
36D
330
359
100
AcDbEntity
  8
0
100
AcDbVertex
100
AcDb2dVertex
 10
-115.1526364896021
 20
527.3488833890044
 30
0.0
 70
     8
  0
VERTEX
  5
36E
330
359
100
AcDbEntity
  8
0
100
AcDbVertex
100
AcDb2dVertex
 10
-115.293854566229
 20
526.6838574800536
 30
0.0
 70
     8
  0
VERTEX
  5
36F
330
359
100
AcDbEntity
  8
0
100
AcDbVertex
100
AcDb2dVertex
 10
-115.2888902403195
 20
525.943984415744
 30
0.0
 70
     8
  0
VERTEX
  5
370
330
359
100
AcDbEntity
  8
0
100
AcDbVertex
100
AcDb2dVertex
 10
-115.1101166321436
 20
525.1392434796585
 30
0.0
 70
     8
  0
VERTEX
  5
371
330
359
100
AcDbEntity
  8
0
100
AcDbVertex
100
AcDb2dVertex
 10
-114.744132144545
 20
524.2881579885224
 30
0.0
 70
     8
  0
VERTEX
  5
372
330
359
100
AcDbEntity
  8
0
100
AcDbVertex
100
AcDb2dVertex
 10
-114.2344363106619
 20
523.4434273916349
 30
0.0
 70
     8
  0
VERTEX
  5
373
330
359
100
AcDbEntity
  8
0
100
AcDbVertex
100
AcDb2dVertex
 10
-113.6387539462057
 20
522.6662951714384
 30
0.0
 70
     8
  0
VERTEX
  5
374
330
359
100
AcDbEntity
  8
0
100
AcDbVertex
100
AcDb2dVertex
 10
-113.0148098668881
 20
522.0180048103749
 30
0.0
 70
     8
  0
VERTEX
  5
375
330
359
100
AcDbEntity
  8
0
100
AcDbVertex
100
AcDb2dVertex
 10
-112.4203288884208
 20
521.5597997908873
 30
0.0
 70
     8
  0
VERTEX
  5
376
330
359
100
AcDbEntity
  8
0
100
AcDbVertex
100
AcDb2dVertex
 10
-111.9130358265153
 20
521.3529235954172
 30
0.0
 70
     8
  0
VERTEX
  5
377
330
359
100
AcDbEntity
  8
0
100
AcDbVertex
100
AcDb2dVertex
 10
-111.5506554968833
 20
521.4586197064073
 30
0.0
 70
     8
  0
VERTEX
  5
378
330
359
100
AcDbEntity
  8
0
100
AcDbVertex
100
AcDb2dVertex
 10
-111.3909127152365
 20
521.9381316063001
 30
0.0
 70
     8
  0
SEQEND
  5
379
330
359
100
AcDbEntity
  8
0
370
     0
  0
LINE
  5
37A
102
{ACAD_XDICTIONARY
360
37B
102
}
330
16C
100
AcDbEntity
  8
0
100
AcDbLine
 10
-82.7577040072938
 20
515.2291971872017
 30
0.0
 11
-115.6477349444831
 21
515.2291971872017
 31
0.0
  0
ARC
  5
37D
102
{ACAD_XDICTIONARY
360
37E
102
}
330
16C
100
AcDbEntity
  8
0
100
AcDbCircle
 10
-90.2832521421733
 20
519.0165559101033
 30
0.0
 40
8.424841887320119
100
AcDbArc
 50
271.7964774158999
 51
333.2854043087524
  0
ARC
  5
380
102
{ACAD_XDICTIONARY
360
381
102
}
330
16C
100
AcDbEntity
  8
0
100
AcDbCircle
 10
-108.9997552226705
 20
517.6412191083791
 30
0.0
 40
7.072021219565332
100
AcDbArc
 50
199.941798794511
 51
274.9763194802809
  0
LINE
  5
383
102
{ACAD_XDICTIONARY
360
384
102
}
330
16C
100
AcDbEntity
  8
0
100
AcDbLine
 10
-90.01913917325874
 20
510.5958549199185
 30
0.0
 11
-108.3862997785181
 21
510.5958549199185
 31
0.0
  0
LINE
  5
386
102
{ACAD_XDICTIONARY
360
387
102
}
330
16C
100
AcDbEntity
  8
0
100
AcDbLine
 10
-107.1048696874204
 20
530.1553839009144
 30
0.0
 11
-92.15485599175734
 21
530.1553839009144
 31
0.0
  0
LWPOLYLINE
  5
389
102
{ACAD_XDICTIONARY
360
38A
102
}
330
16C
100
AcDbEntity
  8
0
100
AcDbPolyline
 90
        4
 70
     1
 43
0.0
 10
-111.2937462845293
 20
688.7246084037863
 10
-59.047071918656
 20
688.7246084037863
 10
-59.047071918656
 20
649.0206627049947
 10
-111.2937462845293
 20
649.0206627049947
  0
LWPOLYLINE
  5
38C
102
{ACAD_XDICTIONARY
360
38D
102
}
330
16C
100
AcDbEntity
  8
0
100
AcDbPolyline
 90
        4
 70
     1
 43
0.0
 10
-112.5554355961285
 20
695.7882194649727
 10
-60.1741327243435
 20
706.6773924340177
 10
-58.91244341274433
 20
699.6137813728291
 10
-111.2937462845293
 20
688.7246084037827
  0
LINE
  5
38F
102
{ACAD_XDICTIONARY
360
390
102
}
330
16C
100
AcDbEntity
  8
0
100
AcDbLine
 10
-91.12145739056723
 20
663.2201925266522
 30
0.0
 11
-89.1691187044489
 21
667.5818863941238
 31
0.0
  0
LINE
  5
392
102
{ACAD_XDICTIONARY
360
393
102
}
330
16C
100
AcDbEntity
  8
0
100
AcDbLine
 10
-87.53621915681288
 20
671.2299255349697
 30
0.0
 11
-85.14606033431483
 21
676.5697475405151
 31
0.0
  0
LINE
  5
395
102
{ACAD_XDICTIONARY
360
396
102
}
330
16C
100
AcDbEntity
  8
0
100
AcDbLine
 10
-85.14606033431483
 20
676.5697475405151
 30
0.0
 11
-83.79477120017691
 21
671.2299255349697
 31
0.0
  0
LINE
  5
398
102
{ACAD_XDICTIONARY
360
399
102
}
330
16C
100
AcDbEntity
  8
0
100
AcDbLine
 10
-82.83585998105988
 20
667.4406438039791
 30
0.0
 11
-81.5293754285376
 21
662.2778738332672
 31
0.0
  0
LINE
  5
39B
102
{ACAD_XDICTIONARY
360
39C
102
}
330
16C
100
AcDbEntity
  8
0
100
AcDbLine
 10
-81.5293754285376
 20
662.2778738332672
 30
0.0
 11
-86.37157678428049
 21
665.6396486842659
 31
0.0
  0
LINE
  5
39E
102
{ACAD_XDICTIONARY
360
39F
102
}
330
16C
100
AcDbEntity
  8
0
100
AcDbLine
 10
-89.1691187044489
 20
667.5818863941249
 30
0.0
 11
-94.42364670128156
 21
671.2299255349697
 31
0.0
  0
LINE
  5
3A1
102
{ACAD_XDICTIONARY
360
3A2
102
}
330
16C
100
AcDbEntity
  8
0
100
AcDbLine
 10
-94.42364670128156
 20
671.2299255349697
 30
0.0
 11
-87.53621915681288
 21
671.2299255349697
 31
0.0
  0
LINE
  5
3A4
102
{ACAD_XDICTIONARY
360
3A5
102
}
330
16C
100
AcDbEntity
  8
0
100
AcDbLine
 10
-83.79477120017691
 20
671.2299255349697
 30
0.0
 11
-75.39673538722855
 21
671.2299255349697
 31
0.0
  0
LINE
  5
3A7
102
{ACAD_XDICTIONARY
360
3A8
102
}
330
16C
100
AcDbEntity
  8
0
100
AcDbLine
 10
-75.39673538722855
 20
671.2299255349697
 30
0.0
 11
-82.83585998105264
 21
667.4406438039791
 31
0.0
  0
LINE
  5
3AA
102
{ACAD_XDICTIONARY
360
3AB
102
}
330
16C
100
AcDbEntity
  8
0
100
AcDbLine
 10
-86.37157678428049
 20
665.6396486842663
 30
0.0
 11
-91.12145739056723
 21
663.2201925266522
 31
0.0
  0
LWPOLYLINE
  5
3AD
102
{ACAD_XDICTIONARY
360
3AE
102
}
330
16C
100
AcDbEntity
  8
0
100
AcDbPolyline
 90
        6
 70
     1
 43
0.0
 10
-92.33816510190807
 20
393.7121822521744
 10
-75.1200931083222
 20
393.7121822521749
 42
-0.4142135623730968
 10
-54.12009310832218
 20
372.7121822521749
 10
-54.12009310832218
 20
367.7325494771161
 10
-113.3381651019081
 20
367.7325494771161
 10
-113.3381651019081
 20
372.7121822521744
 42
-0.4142135623730954
  0
LINE
  5
3B0
102
{ACAD_XDICTIONARY
360
3B1
102
}
330
16C
100
AcDbEntity
  8
0
100
AcDbLine
 10
-83.72912910511513
 20
393.7121822521749
 30
0.0
 11
-83.72912910511513
 21
367.7325494771161
 31
0.0
  0
LWPOLYLINE
  5
3B3
102
{ACAD_XDICTIONARY
360
3B4
102
}
330
16C
100
AcDbEntity
  8
0
100
AcDbPolyline
 90
        4
 70
     1
 43
0.0
 10
67.10064187942044
 20
237.0880746675757
 10
89.38481318703997
 20
237.0880746675757
 10
89.38481318703997
 20
211.4928322665118
 10
67.10064187942044
 20
211.4928322665118
  0
LWPOLYLINE
  5
3B6
102
{ACAD_XDICTIONARY
360
3B7
102
}
330
16C
100
AcDbEntity
  8
0
100
AcDbPolyline
 90
        4
 70
     1
 43
0.0
 10
72.82764757157567
 20
237.0880746675757
 10
82.866404715729
 20
237.0880746675757
 10
82.866404715729
 20
250.2948641274061
 10
72.82764757157567
 20
250.2948641274061
  0
LWPOLYLINE
  5
3B9
102
{ACAD_XDICTIONARY
360
3BA
102
}
330
16C
100
AcDbEntity
  8
0
100
AcDbPolyline
 90
        4
 70
     1
 43
0.0
 10
77.89730693901947
 20
227.7968202900575
 10
78.95112465018609
 20
227.7968202900575
 10
78.95112465018609
 20
222.9853517781748
 10
77.89730693901947
 20
222.9853517781748
  0
ARC
  5
3BC
102
{ACAD_XDICTIONARY
360
3BD
102
}
330
16C
100
AcDbEntity
  8
0
100
AcDbCircle
 10
-241.2127067197653
 20
228.1308864949274
 30
0.0
 40
17.0823537238991
100
AcDbArc
 50
183.9987511575025
 51
86.3566305463899
  0
ARC
  5
3BF
102
{ACAD_XDICTIONARY
360
3C0
102
}
330
16C
100
AcDbEntity
  8
0
100
AcDbCircle
 10
-241.2127067197653
 20
228.1308864949274
 30
0.0
 40
20.08235372389909
100
AcDbArc
 50
183.9987511575025
 51
86.35663054638985
  0
LINE
  5
3C2
102
{ACAD_XDICTIONARY
360
3C3
102
}
330
16C
100
AcDbEntity
  8
0
100
AcDbLine
 10
-261.2461713685989
 20
226.7304489720022
 30
0.0
 11
-258.2534746572128
 21
226.939653163231
 31
0.0
  0
LINE
  5
3C5
102
{ACAD_XDICTIONARY
360
3C6
102
}
330
16C
100
AcDbEntity
  8
0
100
AcDbLine
 10
-239.936554522581
 20
248.1726520524185
 30
0.0
 11
-240.1271923653476
 21
245.1787153107848
 31
0.0
  0
LINE
  5
3C8
102
{ACAD_XDICTIONARY
360
3C9
102
}
330
16C
100
AcDbEntity
  8
0
100
AcDbLine
 10
-244.9866731104339
 20
246.9396045657922
 30
0.0
 11
-240.1416354496032
 21
241.2564948052532
 31
0.0
  0
LINE
  5
3CB
102
{ACAD_XDICTIONARY
360
3CC
102
}
330
16C
100
AcDbEntity
  8
0
100
AcDbLine
 10
-244.9866731104339
 20
246.9396045657922
 30
0.0
 11
-239.7428597017642
 21
251.2791253707042
 31
0.0
  0
LINE
  5
3CE
102
{ACAD_XDICTIONARY
360
3CF
102
}
330
16C
100
AcDbEntity
  8
0
100
AcDbLine
 10
-239.7428597017642
 20
251.2791253707042
 30
0.0
 11
-240.1416354495959
 21
241.2564948052491
 31
0.0
  0
ARC
  5
3D1
102
{ACAD_XDICTIONARY
360
3D2
102
}
330
16C
100
AcDbEntity
  8
0
100
AcDbCircle
 10
-208.357825169478
 20
534.1826840412359
 30
0.0
 40
16.13000172805506
100
AcDbArc
 50
290.3839077572694
 51
244.9487088310488
  0
LINE
  5
3D4
102
{ACAD_XDICTIONARY
360
3D5
102
}
330
16C
100
AcDbEntity
  8
0
100
AcDbLine
 10
-215.1877424266495
 20
519.7223742204577
 30
0.0
 11
-215.1877424266495
 21
504.0707011546137
 31
0.0
  0
LINE
  5
3D7
102
{ACAD_XDICTIONARY
360
3D8
102
}
330
16C
100
AcDbEntity
  8
0
100
AcDbLine
 10
-202.7396038477964
 20
519.0627453863434
 30
0.0
 11
-202.7396038477964
 21
504.0707011546137
 31
0.0
  0
LINE
  5
3DA
102
{ACAD_XDICTIONARY
360
3DB
102
}
330
16C
100
AcDbEntity
  8
0
100
AcDbLine
 10
-215.1877424266495
 20
511.4910567608121
 30
0.0
 11
-202.7396038477964
 21
511.4910567608121
 31
0.0
  0
LINE
  5
3DD
102
{ACAD_XDICTIONARY
360
3DE
102
}
330
16C
100
AcDbEntity
  8
0
100
AcDbLine
 10
-214.1177028065213
 20
501.696652674981
 30
0.0
 11
-203.6802366482589
 21
501.696652674981
 31
0.0
  0
LINE
  5
3E0
102
{ACAD_XDICTIONARY
360
3E1
102
}
330
16C
100
AcDbEntity
  8
0
100
AcDbLine
 10
-215.1877424266495
 20
509.059393799057
 30
0.0
 11
-202.7396038477964
 21
509.059393799057
 31
0.0
  0
LINE
  5
3E3
102
{ACAD_XDICTIONARY
360
3E4
102
}
330
16C
100
AcDbEntity
  8
0
100
AcDbLine
 10
-215.1877424266495
 20
506.8692428753693
 30
0.0
 11
-202.7396038477964
 21
506.8692428753693
 31
0.0
  0
LINE
  5
3E6
102
{ACAD_XDICTIONARY
360
3E7
102
}
330
16C
100
AcDbEntity
  8
0
100
AcDbLine
 10
-215.1877424266495
 20
504.0707011546137
 30
0.0
 11
-202.7396038477964
 21
504.0707011546137
 31
0.0
  0
LINE
  5
3E9
102
{ACAD_XDICTIONARY
360
3EA
102
}
330
16C
100
AcDbEntity
  8
0
100
AcDbLine
 10
-214.1177028065067
 20
504.0707011546137
 30
0.0
 11
-214.1177028065213
 21
501.696652674981
 31
0.0
  0
LINE
  5
3EC
102
{ACAD_XDICTIONARY
360
3ED
102
}
330
16C
100
AcDbEntity
  8
0
100
AcDbLine
 10
-203.6802366482589
 20
504.0707011546137
 30
0.0
 11
-203.6802366482589
 21
501.696652674981
 31
0.0
  0
ARC
  5
3EF
102
{ACAD_XDICTIONARY
360
3F0
102
}
330
16C
100
AcDbEntity
  8
0
100
AcDbCircle
 10
39.75396068900591
 20
384.9197014256097
 30
0.0
 40
16.13000172805502
100
AcDbArc
 50
290.3839077572694
 51
244.9487088310492
  0
LINE
  5
3F2
102
{ACAD_XDICTIONARY
360
3F3
102
}
330
16C
100
AcDbEntity
  8
0
100
AcDbLine
 10
32.92404343183444
 20
370.4593916048316
 30
0.0
 11
32.92404343183444
 21
354.8077185389875
 31
0.0
  0
LINE
  5
3F5
102
{ACAD_XDICTIONARY
360
3F6
102
}
330
16C
100
AcDbEntity
  8
0
100
AcDbLine
 10
45.37218201068752
 20
369.7997627707173
 30
0.0
 11
45.37218201068752
 21
354.8077185389875
 31
0.0
  0
LINE
  5
3F8
102
{ACAD_XDICTIONARY
360
3F9
102
}
330
16C
100
AcDbEntity
  8
0
100
AcDbLine
 10
32.92404343183444
 20
362.2280741451859
 30
0.0
 11
45.37218201068752
 21
362.2280741451859
 31
0.0
  0
LINE
  5
3FB
102
{ACAD_XDICTIONARY
360
3FC
102
}
330
16C
100
AcDbEntity
  8
0
100
AcDbLine
 10
33.99408305196266
 20
352.4336700593549
 30
0.0
 11
44.43154921022506
 21
352.4336700593549
 31
0.0
  0
LINE
  5
3FE
102
{ACAD_XDICTIONARY
360
3FF
102
}
330
16C
100
AcDbEntity
  8
0
100
AcDbLine
 10
32.92404343183444
 20
359.7964111834308
 30
0.0
 11
45.37218201068752
 21
359.7964111834308
 31
0.0
  0
LINE
  5
401
102
{ACAD_XDICTIONARY
360
402
102
}
330
16C
100
AcDbEntity
  8
0
100
AcDbLine
 10
32.92404343183444
 20
357.6062602597431
 30
0.0
 11
45.37218201068752
 21
357.6062602597431
 31
0.0
  0
LINE
  5
404
102
{ACAD_XDICTIONARY
360
405
102
}
330
16C
100
AcDbEntity
  8
0
100
AcDbLine
 10
32.92404343183444
 20
354.8077185389875
 30
0.0
 11
45.37218201068752
 21
354.8077185389875
 31
0.0
  0
LINE
  5
407
102
{ACAD_XDICTIONARY
360
408
102
}
330
16C
100
AcDbEntity
  8
0
100
AcDbLine
 10
33.99408305197721
 20
354.8077185389875
 30
0.0
 11
33.99408305196266
 21
352.4336700593549
 31
0.0
  0
LINE
  5
40A
102
{ACAD_XDICTIONARY
360
40B
102
}
330
16C
100
AcDbEntity
  8
0
100
AcDbLine
 10
44.43154921022506
 20
354.8077185389875
 30
0.0
 11
44.43154921022506
 21
352.4336700593549
 31
0.0
  0
ENDBLK
  5
40D
330
16C
100
AcDbEntity
  8
0
100
AcDbBlockEnd
  0
BLOCK
  5
19B
330
19A
100
AcDbEntity
  8
0
100
AcDbBlockBegin
  2
Pfeil
 70
     0
 10
0.0
 20
0.0
 30
0.0
  3
Pfeil
  1

  0
HATCH
  5
19C
330
19A
100
AcDbEntity
  8
0
  6
Continuous
 62
   171
370
     0
100
AcDbHatch
 10
0.0
 20
0.0
 30
0.0
210
0.0
220
0.0
230
1.0
  2
SOLID
 70
     1
 71
     0
 91
        1
 92
        3
 72
     0
 73
     1
 93
        7
 10
-0.2499999999999995
 20
0.2500000000000003
 10
0.0000000000000001
 20
-0.0000000000000001
 10
-0.2500000000000003
 20
-0.2499999999999997
 10
-0.25
 20
-0.0850000000000006
 10
-1.0
 20
-0.0849999999999993
 10
-0.9999999999999998
 20
0.0850000000000024
 10
-0.2499999999999997
 20
0.0850000000000012
 97
        0
 75
     0
 76
     1
 98
        0
1001
AcDbBlockRepETag
1070
     1
1071
        6
  0
LWPOLYLINE
  5
19E
102
{ACAD_XDICTIONARY
360
19F
102
}
330
19A
100
AcDbEntity
  8
0
  6
Continuous
 62
     0
100
AcDbPolyline
 90
        7
 70
     1
 43
0.0
 10
0.0000000000000001
 20
-0.0000000000000001
 10
-0.2500000000000003
 20
-0.2499999999999997
 10
-0.25
 20
-0.0850000000000006
 10
-1.0
 20
-0.0849999999999993
 10
-0.9999999999999998
 20
0.0850000000000024
 10
-0.2499999999999997
 20
0.0850000000000012
 10
-0.2499999999999995
 20
0.2500000000000003
1001
AcDbBlockRepETag
1070
     1
1071
        0
  0
XLINE
  5
1A1
330
19A
100
AcDbEntity
  8
0
  6
$INVISIBLE
 62
   171
 60
     1
100
AcDbXline
 10
-0.3749999999999993
 20
0.3750000000000005
 30
0.0
 11
0.7071067811865464
 21
-0.7071067811865487
 31
0.0
1001
AcDbBlockRepETag
1070
     1
1071
        8
  0
XLINE
  5
1A2
330
19A
100
AcDbEntity
  8
0
  6
Continuous
 62
     0
 60
     1
100
AcDbXline
 10
0.0000000000000001
 20
-0.0000000000000001
 30
0.0
 11
-0.7071067811865487
 21
-0.7071067811865464
 31
0.0
1001
AcDbBlockRepETag
1070
     1
1071
        1
  0
XLINE
  5
1A3
330
19A
100
AcDbEntity
  8
0
  6
$INVISIBLE
 62
   171
 60
     1
100
AcDbXline
 10
-0.1443379999999997
 20
0.2500000000000001
 30
0.0
 11
0.5000011241930503
 21
-0.8660247547303056
 31
0.0
1001
AcDbBlockRepETag
1070
     1
1071
       10
  0
XLINE
  5
1A4
330
19A
100
AcDbEntity
  8
0
  6
Continuous
 62
     0
 60
     1
100
AcDbXline
 10
0.0000000000000001
 20
-0.0000000000000001
 30
0.0
 11
-0.5000011241930533
 21
-0.8660247547303038
 31
0.0
1001
AcDbBlockRepETag
1070
     1
1071
        2
  0
XLINE
  5
1A5
330
19A
100
AcDbEntity
  8
0
  6
$INVISIBLE
 62
   171
 60
     1
100
AcDbXline
 10
-0.4000000000000003
 20
-0.3000000000000002
 30
0.0
 11
0.8000000000000003
 21
0.5999999999999998
 31
0.0
1001
AcDbBlockRepETag
1070
     1
1071
        7
  0
XLINE
  5
1A6
330
19A
100
AcDbEntity
  8
0
  6
Continuous
 62
     0
 60
     1
100
AcDbXline
 10
0.0000000000000001
 20
-0.0000000000000001
 30
0.0
 11
-0.7999999999999992
 21
0.6000000000000011
 31
0.0
1001
AcDbBlockRepETag
1070
     1
1071
        3
  0
XLINE
  5
1A7
330
19A
100
AcDbEntity
  8
0
  6
$INVISIBLE
 62
   171
 60
     1
100
AcDbXline
 10
-0.3125000000000003
 20
-0.2499999999999996
 30
0.0
 11
0.7808688094430313
 21
0.6246950475544231
 31
0.0
1001
AcDbBlockRepETag
1070
     1
1071
        9
  0
XLINE
  5
1A8
330
19A
100
AcDbEntity
  8
0
  6
Continuous
 62
     0
 60
     1
100
AcDbXline
 10
0.0000000000000001
 20
-0.0000000000000001
 30
0.0
 11
-0.7808688094430294
 21
0.6246950475544255
 31
0.0
1001
AcDbBlockRepETag
1070
     1
1071
        4
  0
XLINE
  5
1A9
330
19A
100
AcDbEntity
  8
0
  6
$INVISIBLE
 62
   171
 60
     1
100
AcDbXline
 10
-0.7979964497955061
 20
0.1887955877365289
 30
0.0
 11
-0.5000000000006157
 21
0.8660254037840832
 31
0.0
1001
AcDbBlockRepETag
1070
     1
1071
       11
  0
LWPOLYLINE
  5
1AA
102
{ACAD_XDICTIONARY
360
1AB
102
}
330
19A
100
AcDbEntity
  8
0
  6
Continuous
 62
     0
 60
     1
100
AcDbPolyline
 90
       15
 70
     1
 43
0.0
 10
-0.7980638450968343
 20
0.1889123198226205
 42
-0.2789295557162637
 10
-0.2225755098025836
 20
0.2006728141482437
 10
-0.093750374731438
 20
0.1262955877365277
 10
-0.0000003747314381
 20
0.2886753509461096
 10
0.0000000000000001
 20
-0.0000000000000001
 10
-0.2500003747314389
 20
-0.1443373509461091
 10
-0.1562503747314386
 20
0.0180424122634727
 10
-0.2850755098025842
 20
0.0924196386751889
 42
0.282128014736976
 10
-0.7354964497955063
 20
0.0805424122634741
 10
-0.7667468245269454
 20
-0.1540063509461082
 10
-1.000000374731435
 20
-0.2886753509461077
 10
-0.9999999999999998
 20
0.0000000000000016
 10
-1.250000374731436
 20
0.144337350946112
 10
-1.016746824526944
 20
0.2790063509461114
 10
-0.7979964497955061
 20
0.1887955877365289
1001
AcDbBlockRepETag
1070
     1
1071
        5
  0
ENDBLK
  5
1AD
330
19A
100
AcDbEntity
  8
0
100
AcDbBlockEnd
  0
BLOCK
  5
1B1
330
1B0
100
AcDbEntity
  8
0
100
AcDbBlockBegin
  2
Lampe
 70
     0
 10
0.0
 20
0.0
 30
0.0
  3
Lampe
  1

  0
LINE
  5
1B2
102
{ACAD_XDICTIONARY
360
1B3
102
}
330
1B0
100
AcDbEntity
  8
0
100
AcDbLine
 10
-78.00292810962492
 20
8.536842946436991
 30
0.0
 11
-2.42396954957803
 21
8.536842946436991
 31
0.0
  0
LINE
  5
1B5
102
{ACAD_XDICTIONARY
360
1B6
102
}
330
1B0
100
AcDbEntity
  8
0
100
AcDbLine
 10
-27.72978657647036
 20
24.69269047791477
 30
0.0
 11
-2.42396954957803
 21
24.69269047791477
 31
0.0
  0
LINE
  5
1B8
102
{ACAD_XDICTIONARY
360
1B9
102
}
330
1B0
100
AcDbEntity
  8
0
100
AcDbLine
 10
-27.72978657647036
 20
29.05996382190733
 30
0.0
 11
-2.42396954957803
 21
29.05996382190733
 31
0.0
  0
LINE
  5
1BB
102
{ACAD_XDICTIONARY
360
1BC
102
}
330
1B0
100
AcDbEntity
  8
0
100
AcDbLine
 10
-2.42396954957803
 20
1.031850125394155
 30
0.0
 11
-78.00292810962492
 21
1.031850125394155
 31
0.0
  0
ELLIPSE
  5
1BE
102
{ACAD_XDICTIONARY
360
1BF
102
}
330
1B0
100
AcDbEntity
  8
0
100
AcDbEllipse
 10
-6.716689334400142
 20
219.6708567365722
 30
0.0
 11
1.673130495316033E-15
 21
-27.32429458813646
 31
0.0
210
0.0
220
0.0
230
1.0
 40
0.959617888793403
 41
3.68175458811718
 42
5.512036723911562
  0
ELLIPSE
  5
1C1
102
{ACAD_XDICTIONARY
360
1C2
102
}
330
1B0
100
AcDbEntity
  8
0
100
AcDbEllipse
 10
-193.9490415860381
 20
96.76125309275906
 30
0.0
 11
1.124850500202170E-14
 21
-183.7020275536318
 31
0.0
210
0.0
220
0.0
230
1.0
 40
0.9596178887934629
 41
1.750443565041188
 42
2.167609107392659
  0
LINE
  5
1C4
102
{ACAD_XDICTIONARY
360
1C5
102
}
330
1B0
100
AcDbEntity
  8
0
100
AcDbLine
 10
-48.13927518578566
 20
200.0034613717626
 30
0.0
 11
-2.42396954957803
 21
200.0034613717626
 31
0.0
  0
LINE
  5
1C7
102
{ACAD_XDICTIONARY
360
1C8
102
}
330
1B0
100
AcDbEntity
  8
0
100
AcDbLine
 10
51.24819698390502
 20
445.8402975527877
 30
0.0
 11
-56.75180301609498
 21
445.8402975527877
 31
0.0
  0
LINE
  5
1CA
102
{ACAD_XDICTIONARY
360
1CB
102
}
330
1B0
100
AcDbEntity
  8
0
100
AcDbLine
 10
-68.48660514896983
 20
8.471392999647833
 30
0.0
 11
-27.72978657647036
 21
24.69269047791477
 31
0.0
  0
LINE
  5
1CD
102
{ACAD_XDICTIONARY
360
1CE
102
}
330
1B0
100
AcDbEntity
  8
0
100
AcDbLine
 10
-78.00292810962492
 20
1.031850125394155
 30
0.0
 11
-78.00292810962492
 21
8.536842946436991
 31
0.0
  0
LINE
  5
1D0
102
{ACAD_XDICTIONARY
360
1D1
102
}
330
1B0
100
AcDbEntity
  8
0
100
AcDbLine
 10
-27.72978657647036
 20
24.69269047791477
 30
0.0
 11
-27.72978657647036
 21
29.05996382190733
 31
0.0
  0
LINE
  5
1D3
102
{ACAD_XDICTIONARY
360
1D4
102
}
330
1B0
100
AcDbEntity
  8
0
100
AcDbLine
 10
63.63866604981011
 20
8.471392999647833
 30
0.0
 11
22.88184747731066
 21
24.69269047791477
 31
0.0
  0
LINE
  5
1D6
102
{ACAD_XDICTIONARY
360
1D7
102
}
330
1B0
100
AcDbEntity
  8
0
100
AcDbLine
 10
73.1549890104652
 20
8.536842946436991
 30
0.0
 11
-2.423969549581669
 21
8.536842946436991
 31
0.0
  0
LINE
  5
1D9
102
{ACAD_XDICTIONARY
360
1DA
102
}
330
1B0
100
AcDbEntity
  8
0
100
AcDbLine
 10
-2.42396954957803
 20
1.031850125394155
 30
0.0
 11
73.1549890104652
 21
1.031850125394155
 31
0.0
  0
LINE
  5
1DC
102
{ACAD_XDICTIONARY
360
1DD
102
}
330
1B0
100
AcDbEntity
  8
0
100
AcDbLine
 10
73.1549890104652
 20
1.031850125394155
 30
0.0
 11
73.1549890104652
 21
8.536842946436991
 31
0.0
  0
LINE
  5
1DF
102
{ACAD_XDICTIONARY
360
1E0
102
}
330
1B0
100
AcDbEntity
  8
0
100
AcDbLine
 10
3.506978400422667
 20
101.7876824320637
 30
0.0
 11
3.506978400422667
 21
29.05996382190733
 31
0.0
  0
LINE
  5
1E2
102
{ACAD_XDICTIONARY
360
1E3
102
}
330
1B0
100
AcDbEntity
  8
0
100
AcDbLine
 10
-8.35491749958237
 20
101.7876824320637
 30
0.0
 11
-8.35491749958237
 21
29.05996382190733
 31
0.0
  0
LINE
  5
1E5
102
{ACAD_XDICTIONARY
360
1E6
102
}
330
1B0
100
AcDbEntity
  8
0
100
AcDbLine
 10
22.88184747731066
 20
24.69269047791477
 30
0.0
 11
-2.42396954957803
 21
24.69269047791477
 31
0.0
  0
LINE
  5
1E8
102
{ACAD_XDICTIONARY
360
1E9
102
}
330
1B0
100
AcDbEntity
  8
0
100
AcDbLine
 10
22.88184747731066
 20
29.05996382190733
 30
0.0
 11
-2.42396954957803
 21
29.05996382190733
 31
0.0
  0
LINE
  5
1EB
102
{ACAD_XDICTIONARY
360
1EC
102
}
330
1B0
100
AcDbEntity
  8
0
100
AcDbLine
 10
22.88184747731066
 20
24.69269047791477
 30
0.0
 11
22.88184747731066
 21
29.05996382190733
 31
0.0
  0
ELLIPSE
  5
1EE
102
{ACAD_XDICTIONARY
360
1EF
102
}
330
1B0
100
AcDbEntity
  8
0
100
AcDbEllipse
 10
1.8687502352368
 20
219.6708567365722
 30
0.0
 11
1.673130495316031E-15
 21
-27.32429458813643
 31
0.0
210
0.0
220
0.0
230
1.0
 40
0.959617888793406
 41
0.7711485832680208
 42
2.601430719062749
  0
ELLIPSE
  5
1F1
102
{ACAD_XDICTIONARY
360
1F2
102
}
330
1B0
100
AcDbEntity
  8
0
100
AcDbEllipse
 10
189.1011024868821
 20
96.76125309275906
 30
0.0
 11
1.124850500202174E-14
 21
-183.7020275536324
 31
0.0
210
0.0
220
0.0
230
1.0
 40
0.9596178887934597
 41
4.115576199786927
 42
4.532741742138394
  0
LINE
  5
1F4
102
{ACAD_XDICTIONARY
360
1F5
102
}
330
1B0
100
AcDbEntity
  8
0
100
AcDbLine
 10
43.29133608662596
 20
200.0034613717626
 30
0.0
 11
-2.423969549581669
 21
200.0034613717626
 31
0.0
  0
ELLIPSE
  5
1F7
102
{ACAD_XDICTIONARY
360
1F8
102
}
330
1B0
100
AcDbEntity
  8
0
100
AcDbEllipse
 10
-2.423969549581669
 20
281.3988944017483
 30
0.0
 11
8.893536580078160E-15
 21
-145.242474585655
 31
0.0
210
0.0
220
0.0
230
1.0
 40
0.9596178887934173
 41
-0.1414868816198165
 42
0.1414868816199879
  0
ELLIPSE
  5
1FA
102
{ACAD_XDICTIONARY
360
1FB
102
}
330
1B0
100
AcDbEntity
  8
0
100
AcDbEllipse
 10
38.01190258757197
 20
140.5717321987185
 30
0.0
 11
3.793852181497238E-15
 21
-61.95830804667379
 31
0.0
210
0.0
220
0.0
230
1.0
 40
0.9596178887936135
 41
-1.392538712042265
 42
-0.7602471825212063
  0
ELLIPSE
  5
1FD
102
{ACAD_XDICTIONARY
360
1FE
102
}
330
1B0
100
AcDbEntity
  8
0
100
AcDbEllipse
 10
-42.85984168672803
 20
140.5717321987185
 30
0.0
 11
3.793852181497246E-15
 21
-61.95830804667392
 31
0.0
210
0.0
220
0.0
230
1.0
 40
0.9596178887936115
 41
0.7602471825211993
 42
1.392538712042256
  0
LINE
  5
200
102
{ACAD_XDICTIONARY
360
201
102
}
330
1B0
100
AcDbEntity
  8
0
100
AcDbLine
 10
-205.251803016095
 20
244.3178415185748
 30
0.0
 11
199.748196983905
 21
244.3178415185748
 31
0.0
  0
LINE
  5
203
102
{ACAD_XDICTIONARY
360
204
102
}
330
1B0
100
AcDbEntity
  8
0
100
AcDbLine
 10
-56.75180301609498
 20
445.8402975527877
 30
0.0
 11
-205.251803016095
 21
244.3178415185748
 31
0.0
  0
LINE
  5
206
102
{ACAD_XDICTIONARY
360
207
102
}
330
1B0
100
AcDbEntity
  8
0
100
AcDbLine
 10
51.24819698390502
 20
445.8402975527877
 30
0.0
 11
199.748196983905
 21
244.3178415185748
 31
0.0
  0
ENDBLK
  5
209
330
1B0
100
AcDbEntity
  8
0
100
AcDbBlockEnd
  0
BLOCK
  5
20C
330
20B
100
AcDbEntity
  8
0
100
AcDbBlockBegin
  2
TV
 70
     0
 10
0.0
 20
0.0
 30
0.0
  3
TV
  1

  0
LINE
  5
20D
102
{ACAD_XDICTIONARY
360
20E
102
}
330
20B
100
AcDbEntity
  8
0
 62
     0
100
AcDbLine
 10
715.2115119554655
 20
552.5366896253181
 30
0.0
 11
106.2534220386587
 21
552.5366896253181
 31
0.0
  0
LINE
  5
210
102
{ACAD_XDICTIONARY
360
211
102
}
330
20B
100
AcDbEntity
  8
0
 62
     0
100
AcDbLine
 10
106.2534220386587
 20
64.06219584569043
 30
0.0
 11
715.2115119554655
 21
64.06219584568315
 31
0.0
  0
LINE
  5
213
102
{ACAD_XDICTIONARY
360
214
102
}
330
20B
100
AcDbEntity
  8
0
 62
     0
100
AcDbLine
 10
68.18245835326525
 20
0.5833515494305175
 30
0.0
 11
748.1824583532652
 21
0.5833515494305175
 31
0.0
  0
LINE
  5
216
102
{ACAD_XDICTIONARY
360
217
102
}
330
20B
100
AcDbEntity
  8
0
 62
     0
100
AcDbLine
 10
68.18245835325797
 20
600.5833515494232
 30
0.0
 11
748.182458353258
 21
600.5833515494232
 31
0.0
  0
ARC
  5
219
102
{ACAD_XDICTIONARY
360
21A
102
}
330
20B
100
AcDbEntity
  8
0
 62
     0
100
AcDbCircle
 10
106.2534220386587
 20
532.5366896253179
 30
0.0
 40
20.0
100
AcDbArc
 50
90.0
 51
180.0
  0
ARC
  5
21C
102
{ACAD_XDICTIONARY
360
21D
102
}
330
20B
100
AcDbEntity
  8
0
 62
     0
100
AcDbCircle
 10
57.55801504211557
 20
478.601069946053
 30
0.0
 40
16.39974026506071
100
AcDbArc
 50
6.994583252174231
 51
155.521969209808
  0
LINE
  5
21F
102
{ACAD_XDICTIONARY
360
220
102
}
330
20B
100
AcDbEntity
  8
0
 62
     0
100
AcDbLine
 10
38.18245835325797
 20
544.5288736175061
 30
0.0
 11
38.18245835325797
 21
570.5833515494232
 31
0.0
  0
ARC
  5
222
102
{ACAD_XDICTIONARY
360
223
102
}
330
20B
100
AcDbEntity
  8
0
 62
     0
100
AcDbCircle
 10
68.18245835325797
 20
570.5833515494232
 30
0.0
 40
30.0
100
AcDbArc
 50
90.0
 51
180.0
  0
ARC
  5
225
102
{ACAD_XDICTIONARY
360
226
102
}
330
20B
100
AcDbEntity
  8
0
 62
     0
100
AcDbCircle
 10
106.2534220386587
 20
84.06219584569043
 30
0.0
 40
20.0
100
AcDbArc
 50
180.0
 51
270.0
  0
ARC
  5
228
102
{ACAD_XDICTIONARY
360
229
102
}
330
20B
100
AcDbEntity
  8
0
 62
     0
100
AcDbCircle
 10
57.55801504211557
 20
153.9257685867996
 30
0.0
 40
16.39974026506069
100
AcDbArc
 50
204.4780307901941
 51
353.0054167478257
  0
ARC
  5
22B
102
{ACAD_XDICTIONARY
360
22C
102
}
330
20B
100
AcDbEntity
  8
0
 62
     0
100
AcDbCircle
 10
68.18245835326525
 20
30.58335154943052
 30
0.0
 40
30.0
100
AcDbArc
 50
180.0
 51
270.0
  0
LINE
  5
22E
102
{ACAD_XDICTIONARY
360
22F
102
}
330
20B
100
AcDbEntity
  8
0
 62
     0
100
AcDbLine
 10
38.18245835326525
 20
30.58335154943052
 30
0.0
 11
38.18245835326525
 21
88.08552680775028
 31
0.0
  0
ARC
  5
231
102
{ACAD_XDICTIONARY
360
232
102
}
330
20B
100
AcDbEntity
  8
0
 62
     0
100
AcDbCircle
 10
701.1457210366422
 20
316.3072002126355
 30
0.0
 40
701.1457907450598
100
AcDbArc
 50
161.004240668704
 51
198.9957593312959
  0
LINE
  5
234
102
{ACAD_XDICTIONARY
360
235
102
}
330
20B
100
AcDbEntity
  8
0
 62
     0
100
AcDbLine
 10
73.83570300760766
 20
151.9286818937471
 30
0.0
 11
73.83570300760766
 21
480.5981566391055
 31
0.0
  0
ARC
  5
237
102
{ACAD_XDICTIONARY
360
238
102
}
330
20B
100
AcDbEntity
  8
0
 62
     0
100
AcDbCircle
 10
625.7141562019387
 20
316.2634192664336
 30
0.0
 40
607.1164426391475
100
AcDbArc
 50
163.8243019332626
 51
196.1756980667384
  0
LINE
  5
23A
102
{ACAD_XDICTIONARY
360
23B
102
}
330
20B
100
AcDbEntity
  8
0
 62
     0
100
AcDbLine
 10
86.25342203865875
 20
532.5366896253179
 30
0.0
 11
86.25342203865875
 21
84.06219584569043
 31
0.0
  0
ARC
  5
23D
102
{ACAD_XDICTIONARY
360
23E
102
}
330
20B
100
AcDbEntity
  8
0
 62
     0
100
AcDbCircle
 10
715.2115119554655
 20
532.5366896253179
 30
0.0
 40
20.0
100
AcDbArc
 50
0.0
 51
89.99999999999969
  0
ARC
  5
240
102
{ACAD_XDICTIONARY
360
241
102
}
330
20B
100
AcDbEntity
  8
0
 62
     0
100
AcDbCircle
 10
763.9069189520086
 20
478.601069946053
 30
0.0
 40
16.39974026506069
100
AcDbArc
 50
24.47803079018997
 51
173.0054167478258
  0
LINE
  5
243
102
{ACAD_XDICTIONARY
360
244
102
}
330
20B
100
AcDbEntity
  8
0
 62
     0
100
AcDbLine
 10
778.1824583532577
 20
544.5288736175061
 30
0.0
 11
778.1824583532577
 21
570.5833515494232
 31
0.0
  0
ARC
  5
246
102
{ACAD_XDICTIONARY
360
247
102
}
330
20B
100
AcDbEntity
  8
0
 62
     0
100
AcDbCircle
 10
748.182458353258
 20
570.5833515494232
 30
0.0
 40
30.0
100
AcDbArc
 50
0.0
 51
90.00000000000021
  0
ARC
  5
249
102
{ACAD_XDICTIONARY
360
24A
102
}
330
20B
100
AcDbEntity
  8
0
 62
     0
100
AcDbCircle
 10
715.2115119554655
 20
84.06219584568316
 30
0.0
 40
20.0
100
AcDbArc
 50
270.0
 51
0.0
  0
ARC
  5
24C
102
{ACAD_XDICTIONARY
360
24D
102
}
330
20B
100
AcDbEntity
  8
0
 62
     0
100
AcDbCircle
 10
763.9069189520086
 20
153.9257685867996
 30
0.0
 40
16.39974026506068
100
AcDbArc
 50
186.9945832521743
 51
335.5219692098078
  0
ARC
  5
24F
102
{ACAD_XDICTIONARY
360
250
102
}
330
20B
100
AcDbEntity
  8
0
 62
     0
100
AcDbCircle
 10
748.1824583532652
 20
30.58335154943052
 30
0.0
 40
30.0
100
AcDbArc
 50
270.0
 51
0.0
  0
LINE
  5
252
102
{ACAD_XDICTIONARY
360
253
102
}
330
20B
100
AcDbEntity
  8
0
 62
     0
100
AcDbLine
 10
778.1824583532652
 20
30.58335154943052
 30
0.0
 11
778.1824583532652
 21
88.08552680775759
 31
0.0
  0
LINE
  5
255
102
{ACAD_XDICTIONARY
360
256
102
}
330
20B
100
AcDbEntity
  8
0
 62
     0
100
AcDbLine
 10
747.6292309865165
 20
151.9286818937471
 30
0.0
 11
747.6292309865165
 21
480.5981566391055
 31
0.0
  0
ARC
  5
258
102
{ACAD_XDICTIONARY
360
259
102
}
330
20B
100
AcDbEntity
  8
0
 62
     0
100
AcDbCircle
 10
195.7507777921855
 20
316.2634192664336
 30
0.0
 40
607.1164426391474
100
AcDbArc
 50
343.8243019332617
 51
16.17569806673734
  0
LINE
  5
25B
102
{ACAD_XDICTIONARY
360
25C
102
}
330
20B
100
AcDbEntity
  8
0
 62
     0
100
AcDbLine
 10
735.2115119554655
 20
84.06219584568316
 30
0.0
 11
735.2115119554655
 21
532.5366896253179
 31
0.0
  0
ARC
  5
25E
102
{ACAD_XDICTIONARY
360
25F
102
}
330
20B
100
AcDbEntity
  8
0
 62
     0
100
AcDbCircle
 10
115.2191956698807
 20
316.3072002126355
 30
0.0
 40
701.1457907450598
100
AcDbArc
 50
341.0042406687041
 51
18.99575933129596
  0
LINE
  5
261
102
{ACAD_XDICTIONARY
360
262
102
}
330
20B
100
AcDbEntity
  8
0
 62
     0
100
AcDbLine
 10
397.8707999208126
 20
430.2181692866652
 30
0.0
 11
177.0468897438986
 21
209.505835381111
 31
0.0
  0
LINE
  5
264
102
{ACAD_XDICTIONARY
360
265
102
}
330
20B
100
AcDbEntity
  8
0
 62
     0
100
AcDbLine
 10
498.6817171790533
 20
552.5695838656465
 30
0.0
 11
277.8578070021394
 21
331.8572499600923
 31
0.0
  0
ARC
  5
267
102
{ACAD_XDICTIONARY
360
268
102
}
330
20B
100
AcDbEntity
  8
0
 62
     0
100
AcDbCircle
 10
404.7236165773791
 20
-670.6863828728748
 30
0.0
 40
718.7357961925097
100
AcDbArc
 50
68.9308551055761
 51
111.0691448944237
  0
CIRCLE
  5
26A
330
20B
100
AcDbEntity
  8
0
 62
     0
370
     0
100
AcDbCircle
 10
338.3157869195056
 20
22.02078135532065
 30
0.0
 40
7.650017980879056
  0
LINE
  5
26B
102
{ACAD_XDICTIONARY
360
26C
102
}
330
20B
100
AcDbEntity
  8
0
 62
     0
100
AcDbLine
 10
405.5000847546688
 20
29.67079933619972
 30
0.0
 11
405.5000847546688
 21
14.37070484377182
 31
0.0
  0
LINE
  5
26E
102
{ACAD_XDICTIONARY
360
26F
102
}
330
20B
100
AcDbEntity
  8
0
 62
     0
100
AcDbLine
 10
405.5000847546688
 20
14.37070484377182
 30
0.0
 11
411.4531410538257
 21
14.37070484377182
 31
0.0
  0
LINE
  5
271
102
{ACAD_XDICTIONARY
360
272
102
}
330
20B
100
AcDbEntity
  8
0
 62
     0
100
AcDbLine
 10
411.4531410538257
 20
14.37070484377182
 30
0.0
 11
411.4531410538257
 21
29.67079933619972
 31
0.0
  0
LINE
  5
274
102
{ACAD_XDICTIONARY
360
275
102
}
330
20B
100
AcDbEntity
  8
0
 62
     0
100
AcDbLine
 10
411.4531410538257
 20
29.67079933619972
 30
0.0
 11
405.5000847546688
 21
29.67079933619972
 31
0.0
  0
LINE
  5
277
102
{ACAD_XDICTIONARY
360
278
102
}
330
20B
100
AcDbEntity
  8
0
 62
     0
100
AcDbLine
 10
431.8635281778406
 20
29.67079933619972
 30
0.0
 11
425.9104718786836
 21
29.67079933619972
 31
0.0
  0
LINE
  5
27A
102
{ACAD_XDICTIONARY
360
27B
102
}
330
20B
100
AcDbEntity
  8
0
 62
     0
100
AcDbLine
 10
431.8635281778406
 20
14.37070484377182
 30
0.0
 11
431.8635281778406
 21
29.67079933619972
 31
0.0
  0
LINE
  5
27D
102
{ACAD_XDICTIONARY
360
27E
102
}
330
20B
100
AcDbEntity
  8
0
 62
     0
100
AcDbLine
 10
425.9104718786836
 20
14.37070484377182
 30
0.0
 11
431.8635281778406
 21
14.37070484377182
 31
0.0
  0
LINE
  5
280
102
{ACAD_XDICTIONARY
360
281
102
}
330
20B
100
AcDbEntity
  8
0
 62
     0
100
AcDbLine
 10
425.9104718786836
 20
29.67079933619972
 30
0.0
 11
425.9104718786836
 21
14.37070484377182
 31
0.0
  0
LINE
  5
283
102
{ACAD_XDICTIONARY
360
284
102
}
330
20B
100
AcDbEntity
  8
0
 62
     0
100
AcDbLine
 10
387.6409158571915
 20
29.67079933619972
 30
0.0
 11
387.6409158571915
 21
14.37070484377182
 31
0.0
  0
LINE
  5
286
102
{ACAD_XDICTIONARY
360
287
102
}
330
20B
100
AcDbEntity
  8
0
 62
     0
100
AcDbLine
 10
387.6409158571915
 20
14.37070484377182
 30
0.0
 11
393.5939721563482
 21
14.37070484377182
 31
0.0
  0
LINE
  5
289
102
{ACAD_XDICTIONARY
360
28A
102
}
330
20B
100
AcDbEntity
  8
0
 62
     0
100
AcDbLine
 10
393.5939721563482
 20
14.37070484377182
 30
0.0
 11
393.5939721563482
 21
29.67079933619972
 31
0.0
  0
LINE
  5
28C
102
{ACAD_XDICTIONARY
360
28D
102
}
330
20B
100
AcDbEntity
  8
0
 62
     0
100
AcDbLine
 10
393.5939721563482
 20
29.67079933619972
 30
0.0
 11
387.6409158571915
 21
29.67079933619972
 31
0.0
  0
LINE
  5
28F
102
{ACAD_XDICTIONARY
360
290
102
}
330
20B
100
AcDbEntity
  8
0
 62
     0
100
AcDbLine
 10
373.1835850323405
 20
29.67079933619972
 30
0.0
 11
367.2305287331765
 21
29.67079933619972
 31
0.0
  0
LINE
  5
292
102
{ACAD_XDICTIONARY
360
293
102
}
330
20B
100
AcDbEntity
  8
0
 62
     0
100
AcDbLine
 10
373.1835850323405
 20
14.37070484377182
 30
0.0
 11
373.1835850323405
 21
29.67079933619972
 31
0.0
  0
LINE
  5
295
102
{ACAD_XDICTIONARY
360
296
102
}
330
20B
100
AcDbEntity
  8
0
 62
     0
100
AcDbLine
 10
367.2305287331765
 20
14.37070484377182
 30
0.0
 11
373.1835850323405
 21
14.37070484377182
 31
0.0
  0
LINE
  5
298
102
{ACAD_XDICTIONARY
360
299
102
}
330
20B
100
AcDbEntity
  8
0
 62
     0
100
AcDbLine
 10
367.2305287331765
 20
29.67079933619972
 30
0.0
 11
367.2305287331765
 21
14.37070484377182
 31
0.0
  0
LINE
  5
29B
102
{ACAD_XDICTIONARY
360
29C
102
}
330
20B
100
AcDbEntity
  8
0
 62
     0
100
AcDbLine
 10
733.9072442242613
 20
329.4581945817845
 30
0.0
 11
513.0833340473473
 21
108.7458606762302
 31
0.0
  0
LINE
  5
29E
102
{ACAD_XDICTIONARY
360
29F
102
}
330
20B
100
AcDbEntity
  8
0
 62
     0
100
AcDbLine
 10
709.9046296077357
 20
283.8763179859597
 30
0.0
 11
489.0807194308218
 21
63.16398408040551
 31
0.0
  0
ENDBLK
  5
2A1
330
20B
100
AcDbEntity
  8
0
100
AcDbBlockEnd
  0
ENDSEC
  0
SECTION
  2
ENTITIES
  0
INSERT
  5
40E
330
1F
100
AcDbEntity
  8
0
100
AcDbBlockReference
  2
Bildschirm
 10
148.5
 20
105.0
 30
0.0
 41
0.2575970999999981
 42
0.2575970999999981
  0
VIEWPORT
  5
40F
330
1B
100
AcDbEntity
 67
     1
  8
0
100
AcDbViewport
 10
148.5
 20
105.0
 30
0.0
 40
297.0
 41
210.0
 68
     1
 69
     1
 12
148.5
 22
105.0
 13
0.0
 23
0.0
 14
5.0
 24
5.0
 15
5.0
 25
5.0
 16
0.0
 26
0.0
 36
1.0
 17
0.0
 27
0.0
 37
0.0
 42
50.0
 43
0.0
 44
0.0
 45
210.0
 50
0.0
 51
0.0
 72
  1000
 90
    32800
  1

281
     0
 71
     1
 74
     0
110
0.0
120
0.0
130
0.0
111
1.0
121
0.0
131
0.0
112
0.0
122
1.0
132
0.0
 79
     0
146
0.0
170
     0
 61
     5
292
     1
282
     1
141
0.0
142
0.0
 63
   256
  0
ENDSEC
  0
SECTION
  2
OBJECTS
  0
DICTIONARY
  5
C
330
0
100
AcDbDictionary
281
     1
  3
ACAD_GROUP
350
D
  3
ACAD_LAYOUT
350
1A
  3
ACAD_MATERIAL
350
3B
  3
ACAD_MLEADERSTYLE
350
15C
  3
ACAD_MLINESTYLE
350
17
  3
ACAD_PLOTSETTINGS
350
19
  3
ACAD_PLOTSTYLENAME
350
E
  3
ACAD_TABLESTYLE
350
16A
  3
ACAD_VISUALSTYLE
350
2A
  3
ACDB_RECOMPOSE_DATA
350
432
  0
DICTIONARY
  5
16F
330
16E
100
AcDbDictionary
280
     1
281
     1
  3
TC_EXTENDED_DATA
360
170
  0
DICTIONARY
  5
172
330
171
100
AcDbDictionary
280
     1
281
     1
  3
TC_EXTENDED_DATA
360
173
  0
DICTIONARY
  5
175
330
174
100
AcDbDictionary
280
     1
281
     1
  3
TC_EXTENDED_DATA
360
176
  0
DICTIONARY
  5
178
330
177
100
AcDbDictionary
280
     1
281
     1
  3
TC_EXTENDED_DATA
360
179
  0
DICTIONARY
  5
17B
330
17A
100
AcDbDictionary
280
     1
281
     1
  3
TC_EXTENDED_DATA
360
17C
  0
DICTIONARY
  5
17E
330
17D
100
AcDbDictionary
280
     1
281
     1
  3
TC_EXTENDED_DATA
360
17F
  0
DICTIONARY
  5
181
330
180
100
AcDbDictionary
280
     1
281
     1
  3
TC_EXTENDED_DATA
360
182
  0
DICTIONARY
  5
184
330
183
100
AcDbDictionary
280
     1
281
     1
  3
TC_EXTENDED_DATA
360
185
  0
DICTIONARY
  5
187
330
186
100
AcDbDictionary
280
     1
281
     1
  3
TC_EXTENDED_DATA
360
188
  0
DICTIONARY
  5
18A
330
189
100
AcDbDictionary
280
     1
281
     1
  3
TC_EXTENDED_DATA
360
18B
  0
DICTIONARY
  5
18D
330
18C
100
AcDbDictionary
280
     1
281
     1
  3
TC_EXTENDED_DATA
360
18E
  0
DICTIONARY
  5
190
330
18F
100
AcDbDictionary
280
     1
281
     1
  3
TC_EXTENDED_DATA
360
191
  0
DICTIONARY
  5
193
330
192
100
AcDbDictionary
280
     1
281
     1
  3
TC_EXTENDED_DATA
360
194
  0
DICTIONARY
  5
2A3
330
2A2
100
AcDbDictionary
280
     1
281
     1
  3
TC_EXTENDED_DATA
360
2A4
  0
DICTIONARY
  5
2A6
330
2A5
100
AcDbDictionary
280
     1
281
     1
  3
TC_EXTENDED_DATA
360
2A7
  0
DICTIONARY
  5
2A9
330
2A8
100
AcDbDictionary
280
     1
281
     1
  3
TC_EXTENDED_DATA
360
2AA
  0
DICTIONARY
  5
2AC
330
2AB
100
AcDbDictionary
280
     1
281
     1
  3
TC_EXTENDED_DATA
360
2AD
  0
DICTIONARY
  5
2AF
330
2AE
100
AcDbDictionary
280
     1
281
     1
  3
TC_EXTENDED_DATA
360
2B0
  0
DICTIONARY
  5
2B2
330
2B1
100
AcDbDictionary
280
     1
281
     1
  3
TC_EXTENDED_DATA
360
2B3
  0
DICTIONARY
  5
2B5
330
2B4
100
AcDbDictionary
280
     1
281
     1
  3
TC_EXTENDED_DATA
360
2B6
  0
DICTIONARY
  5
2B8
330
2B7
100
AcDbDictionary
280
     1
281
     1
  3
TC_EXTENDED_DATA
360
2B9
  0
DICTIONARY
  5
2BB
330
2BA
100
AcDbDictionary
280
     1
281
     1
  3
TC_EXTENDED_DATA
360
2BC
  0
DICTIONARY
  5
2BE
330
2BD
100
AcDbDictionary
280
     1
281
     1
  3
TC_EXTENDED_DATA
360
2BF
  0
DICTIONARY
  5
2C1
330
2C0
100
AcDbDictionary
280
     1
281
     1
  3
TC_EXTENDED_DATA
360
2C2
  0
DICTIONARY
  5
2C4
330
2C3
100
AcDbDictionary
280
     1
281
     1
  3
TC_EXTENDED_DATA
360
2C5
  0
DICTIONARY
  5
2C7
330
2C6
100
AcDbDictionary
280
     1
281
     1
  3
TC_EXTENDED_DATA
360
2C8
  0
DICTIONARY
  5
2CD
330
2CC
100
AcDbDictionary
280
     1
281
     1
  3
TC_EXTENDED_DATA
360
2CE
  0
DICTIONARY
  5
2D3
330
2D2
100
AcDbDictionary
280
     1
281
     1
  3
TC_EXTENDED_DATA
360
2D4
  0
DICTIONARY
  5
2D9
330
2D8
100
AcDbDictionary
280
     1
281
     1
  3
TC_EXTENDED_DATA
360
2DA
  0
DICTIONARY
  5
2FD
330
2FC
100
AcDbDictionary
280
     1
281
     1
  3
TC_EXTENDED_DATA
360
2FE
  0
DICTIONARY
  5
300
330
2FF
100
AcDbDictionary
280
     1
281
     1
  3
TC_EXTENDED_DATA
360
301
  0
DICTIONARY
  5
324
330
323
100
AcDbDictionary
280
     1
281
     1
  3
TC_EXTENDED_DATA
360
325
  0
DICTIONARY
  5
327
330
326
100
AcDbDictionary
280
     1
281
     1
  3
TC_EXTENDED_DATA
360
328
  0
DICTIONARY
  5
32A
330
329
100
AcDbDictionary
280
     1
281
     1
  3
TC_EXTENDED_DATA
360
32B
  0
DICTIONARY
  5
32D
330
32C
100
AcDbDictionary
280
     1
281
     1
  3
TC_EXTENDED_DATA
360
32E
  0
DICTIONARY
  5
330
330
32F
100
AcDbDictionary
280
     1
281
     1
  3
TC_EXTENDED_DATA
360
331
  0
DICTIONARY
  5
354
330
353
100
AcDbDictionary
280
     1
281
     1
  3
TC_EXTENDED_DATA
360
355
  0
DICTIONARY
  5
357
330
356
100
AcDbDictionary
280
     1
281
     1
  3
TC_EXTENDED_DATA
360
358
  0
DICTIONARY
  5
37B
330
37A
100
AcDbDictionary
280
     1
281
     1
  3
TC_EXTENDED_DATA
360
37C
  0
DICTIONARY
  5
37E
330
37D
100
AcDbDictionary
280
     1
281
     1
  3
TC_EXTENDED_DATA
360
37F
  0
DICTIONARY
  5
381
330
380
100
AcDbDictionary
280
     1
281
     1
  3
TC_EXTENDED_DATA
360
382
  0
DICTIONARY
  5
384
330
383
100
AcDbDictionary
280
     1
281
     1
  3
TC_EXTENDED_DATA
360
385
  0
DICTIONARY
  5
387
330
386
100
AcDbDictionary
280
     1
281
     1
  3
TC_EXTENDED_DATA
360
388
  0
DICTIONARY
  5
38A
330
389
100
AcDbDictionary
280
     1
281
     1
  3
TC_EXTENDED_DATA
360
38B
  0
DICTIONARY
  5
38D
330
38C
100
AcDbDictionary
280
     1
281
     1
  3
TC_EXTENDED_DATA
360
38E
  0
DICTIONARY
  5
390
330
38F
100
AcDbDictionary
280
     1
281
     1
  3
TC_EXTENDED_DATA
360
391
  0
DICTIONARY
  5
393
330
392
100
AcDbDictionary
280
     1
281
     1
  3
TC_EXTENDED_DATA
360
394
  0
DICTIONARY
  5
396
330
395
100
AcDbDictionary
280
     1
281
     1
  3
TC_EXTENDED_DATA
360
397
  0
DICTIONARY
  5
399
330
398
100
AcDbDictionary
280
     1
281
     1
  3
TC_EXTENDED_DATA
360
39A
  0
DICTIONARY
  5
39C
330
39B
100
AcDbDictionary
280
     1
281
     1
  3
TC_EXTENDED_DATA
360
39D
  0
DICTIONARY
  5
39F
330
39E
100
AcDbDictionary
280
     1
281
     1
  3
TC_EXTENDED_DATA
360
3A0
  0
DICTIONARY
  5
3A2
330
3A1
100
AcDbDictionary
280
     1
281
     1
  3
TC_EXTENDED_DATA
360
3A3
  0
DICTIONARY
  5
3A5
330
3A4
100
AcDbDictionary
280
     1
281
     1
  3
TC_EXTENDED_DATA
360
3A6
  0
DICTIONARY
  5
3A8
330
3A7
100
AcDbDictionary
280
     1
281
     1
  3
TC_EXTENDED_DATA
360
3A9
  0
DICTIONARY
  5
3AB
330
3AA
100
AcDbDictionary
280
     1
281
     1
  3
TC_EXTENDED_DATA
360
3AC
  0
DICTIONARY
  5
3AE
330
3AD
100
AcDbDictionary
280
     1
281
     1
  3
TC_EXTENDED_DATA
360
3AF
  0
DICTIONARY
  5
3B1
330
3B0
100
AcDbDictionary
280
     1
281
     1
  3
TC_EXTENDED_DATA
360
3B2
  0
DICTIONARY
  5
3B4
330
3B3
100
AcDbDictionary
280
     1
281
     1
  3
TC_EXTENDED_DATA
360
3B5
  0
DICTIONARY
  5
3B7
330
3B6
100
AcDbDictionary
280
     1
281
     1
  3
TC_EXTENDED_DATA
360
3B8
  0
DICTIONARY
  5
3BA
330
3B9
100
AcDbDictionary
280
     1
281
     1
  3
TC_EXTENDED_DATA
360
3BB
  0
DICTIONARY
  5
3BD
330
3BC
100
AcDbDictionary
280
     1
281
     1
  3
TC_EXTENDED_DATA
360
3BE
  0
DICTIONARY
  5
3C0
330
3BF
100
AcDbDictionary
280
     1
281
     1
  3
TC_EXTENDED_DATA
360
3C1
  0
DICTIONARY
  5
3C3
330
3C2
100
AcDbDictionary
280
     1
281
     1
  3
TC_EXTENDED_DATA
360
3C4
  0
DICTIONARY
  5
3C6
330
3C5
100
AcDbDictionary
280
     1
281
     1
  3
TC_EXTENDED_DATA
360
3C7
  0
DICTIONARY
  5
3C9
330
3C8
100
AcDbDictionary
280
     1
281
     1
  3
TC_EXTENDED_DATA
360
3CA
  0
DICTIONARY
  5
3CC
330
3CB
100
AcDbDictionary
280
     1
281
     1
  3
TC_EXTENDED_DATA
360
3CD
  0
DICTIONARY
  5
3CF
330
3CE
100
AcDbDictionary
280
     1
281
     1
  3
TC_EXTENDED_DATA
360
3D0
  0
DICTIONARY
  5
3D2
330
3D1
100
AcDbDictionary
280
     1
281
     1
  3
TC_EXTENDED_DATA
360
3D3
  0
DICTIONARY
  5
3D5
330
3D4
100
AcDbDictionary
280
     1
281
     1
  3
TC_EXTENDED_DATA
360
3D6
  0
DICTIONARY
  5
3D8
330
3D7
100
AcDbDictionary
280
     1
281
     1
  3
TC_EXTENDED_DATA
360
3D9
  0
DICTIONARY
  5
3DB
330
3DA
100
AcDbDictionary
280
     1
281
     1
  3
TC_EXTENDED_DATA
360
3DC
  0
DICTIONARY
  5
3DE
330
3DD
100
AcDbDictionary
280
     1
281
     1
  3
TC_EXTENDED_DATA
360
3DF
  0
DICTIONARY
  5
3E1
330
3E0
100
AcDbDictionary
280
     1
281
     1
  3
TC_EXTENDED_DATA
360
3E2
  0
DICTIONARY
  5
3E4
330
3E3
100
AcDbDictionary
280
     1
281
     1
  3
TC_EXTENDED_DATA
360
3E5
  0
DICTIONARY
  5
3E7
330
3E6
100
AcDbDictionary
280
     1
281
     1
  3
TC_EXTENDED_DATA
360
3E8
  0
DICTIONARY
  5
3EA
330
3E9
100
AcDbDictionary
280
     1
281
     1
  3
TC_EXTENDED_DATA
360
3EB
  0
DICTIONARY
  5
3ED
330
3EC
100
AcDbDictionary
280
     1
281
     1
  3
TC_EXTENDED_DATA
360
3EE
  0
DICTIONARY
  5
3F0
330
3EF
100
AcDbDictionary
280
     1
281
     1
  3
TC_EXTENDED_DATA
360
3F1
  0
DICTIONARY
  5
3F3
330
3F2
100
AcDbDictionary
280
     1
281
     1
  3
TC_EXTENDED_DATA
360
3F4
  0
DICTIONARY
  5
3F6
330
3F5
100
AcDbDictionary
280
     1
281
     1
  3
TC_EXTENDED_DATA
360
3F7
  0
DICTIONARY
  5
3F9
330
3F8
100
AcDbDictionary
280
     1
281
     1
  3
TC_EXTENDED_DATA
360
3FA
  0
DICTIONARY
  5
3FC
330
3FB
100
AcDbDictionary
280
     1
281
     1
  3
TC_EXTENDED_DATA
360
3FD
  0
DICTIONARY
  5
3FF
330
3FE
100
AcDbDictionary
280
     1
281
     1
  3
TC_EXTENDED_DATA
360
400
  0
DICTIONARY
  5
402
330
401
100
AcDbDictionary
280
     1
281
     1
  3
TC_EXTENDED_DATA
360
403
  0
DICTIONARY
  5
405
330
404
100
AcDbDictionary
280
     1
281
     1
  3
TC_EXTENDED_DATA
360
406
  0
DICTIONARY
  5
408
330
407
100
AcDbDictionary
280
     1
281
     1
  3
TC_EXTENDED_DATA
360
409
  0
DICTIONARY
  5
40B
330
40A
100
AcDbDictionary
280
     1
281
     1
  3
TC_EXTENDED_DATA
360
40C
  0
DICTIONARY
  5
19F
330
19E
100
AcDbDictionary
280
     1
281
     1
  3
TC_EXTENDED_DATA
360
1A0
  0
DICTIONARY
  5
1AB
330
1AA
100
AcDbDictionary
280
     1
281
     1
  3
TC_EXTENDED_DATA
360
1AC
  0
DICTIONARY
  5
1B3
330
1B2
100
AcDbDictionary
280
     1
281
     1
  3
TC_EXTENDED_DATA
360
1B4
  0
DICTIONARY
  5
1B6
330
1B5
100
AcDbDictionary
280
     1
281
     1
  3
TC_EXTENDED_DATA
360
1B7
  0
DICTIONARY
  5
1B9
330
1B8
100
AcDbDictionary
280
     1
281
     1
  3
TC_EXTENDED_DATA
360
1BA
  0
DICTIONARY
  5
1BC
330
1BB
100
AcDbDictionary
280
     1
281
     1
  3
TC_EXTENDED_DATA
360
1BD
  0
DICTIONARY
  5
1BF
330
1BE
100
AcDbDictionary
280
     1
281
     1
  3
TC_EXTENDED_DATA
360
1C0
  0
DICTIONARY
  5
1C2
330
1C1
100
AcDbDictionary
280
     1
281
     1
  3
TC_EXTENDED_DATA
360
1C3
  0
DICTIONARY
  5
1C5
330
1C4
100
AcDbDictionary
280
     1
281
     1
  3
TC_EXTENDED_DATA
360
1C6
  0
DICTIONARY
  5
1C8
330
1C7
100
AcDbDictionary
280
     1
281
     1
  3
TC_EXTENDED_DATA
360
1C9
  0
DICTIONARY
  5
1CB
330
1CA
100
AcDbDictionary
280
     1
281
     1
  3
TC_EXTENDED_DATA
360
1CC
  0
DICTIONARY
  5
1CE
330
1CD
100
AcDbDictionary
280
     1
281
     1
  3
TC_EXTENDED_DATA
360
1CF
  0
DICTIONARY
  5
1D1
330
1D0
100
AcDbDictionary
280
     1
281
     1
  3
TC_EXTENDED_DATA
360
1D2
  0
DICTIONARY
  5
1D4
330
1D3
100
AcDbDictionary
280
     1
281
     1
  3
TC_EXTENDED_DATA
360
1D5
  0
DICTIONARY
  5
1D7
330
1D6
100
AcDbDictionary
280
     1
281
     1
  3
TC_EXTENDED_DATA
360
1D8
  0
DICTIONARY
  5
1DA
330
1D9
100
AcDbDictionary
280
     1
281
     1
  3
TC_EXTENDED_DATA
360
1DB
  0
DICTIONARY
  5
1DD
330
1DC
100
AcDbDictionary
280
     1
281
     1
  3
TC_EXTENDED_DATA
360
1DE
  0
DICTIONARY
  5
1E0
330
1DF
100
AcDbDictionary
280
     1
281
     1
  3
TC_EXTENDED_DATA
360
1E1
  0
DICTIONARY
  5
1E3
330
1E2
100
AcDbDictionary
280
     1
281
     1
  3
TC_EXTENDED_DATA
360
1E4
  0
DICTIONARY
  5
1E6
330
1E5
100
AcDbDictionary
280
     1
281
     1
  3
TC_EXTENDED_DATA
360
1E7
  0
DICTIONARY
  5
1E9
330
1E8
100
AcDbDictionary
280
     1
281
     1
  3
TC_EXTENDED_DATA
360
1EA
  0
DICTIONARY
  5
1EC
330
1EB
100
AcDbDictionary
280
     1
281
     1
  3
TC_EXTENDED_DATA
360
1ED
  0
DICTIONARY
  5
1EF
330
1EE
100
AcDbDictionary
280
     1
281
     1
  3
TC_EXTENDED_DATA
360
1F0
  0
DICTIONARY
  5
1F2
330
1F1
100
AcDbDictionary
280
     1
281
     1
  3
TC_EXTENDED_DATA
360
1F3
  0
DICTIONARY
  5
1F5
330
1F4
100
AcDbDictionary
280
     1
281
     1
  3
TC_EXTENDED_DATA
360
1F6
  0
DICTIONARY
  5
1F8
330
1F7
100
AcDbDictionary
280
     1
281
     1
  3
TC_EXTENDED_DATA
360
1F9
  0
DICTIONARY
  5
1FB
330
1FA
100
AcDbDictionary
280
     1
281
     1
  3
TC_EXTENDED_DATA
360
1FC
  0
DICTIONARY
  5
1FE
330
1FD
100
AcDbDictionary
280
     1
281
     1
  3
TC_EXTENDED_DATA
360
1FF
  0
DICTIONARY
  5
201
330
200
100
AcDbDictionary
280
     1
281
     1
  3
TC_EXTENDED_DATA
360
202
  0
DICTIONARY
  5
204
330
203
100
AcDbDictionary
280
     1
281
     1
  3
TC_EXTENDED_DATA
360
205
  0
DICTIONARY
  5
207
330
206
100
AcDbDictionary
280
     1
281
     1
  3
TC_EXTENDED_DATA
360
208
  0
DICTIONARY
  5
20E
330
20D
100
AcDbDictionary
280
     1
281
     1
  3
TC_EXTENDED_DATA
360
20F
  0
DICTIONARY
  5
211
330
210
100
AcDbDictionary
280
     1
281
     1
  3
TC_EXTENDED_DATA
360
212
  0
DICTIONARY
  5
214
330
213
100
AcDbDictionary
280
     1
281
     1
  3
TC_EXTENDED_DATA
360
215
  0
DICTIONARY
  5
217
330
216
100
AcDbDictionary
280
     1
281
     1
  3
TC_EXTENDED_DATA
360
218
  0
DICTIONARY
  5
21A
330
219
100
AcDbDictionary
280
     1
281
     1
  3
TC_EXTENDED_DATA
360
21B
  0
DICTIONARY
  5
21D
330
21C
100
AcDbDictionary
280
     1
281
     1
  3
TC_EXTENDED_DATA
360
21E
  0
DICTIONARY
  5
220
330
21F
100
AcDbDictionary
280
     1
281
     1
  3
TC_EXTENDED_DATA
360
221
  0
DICTIONARY
  5
223
330
222
100
AcDbDictionary
280
     1
281
     1
  3
TC_EXTENDED_DATA
360
224
  0
DICTIONARY
  5
226
330
225
100
AcDbDictionary
280
     1
281
     1
  3
TC_EXTENDED_DATA
360
227
  0
DICTIONARY
  5
229
330
228
100
AcDbDictionary
280
     1
281
     1
  3
TC_EXTENDED_DATA
360
22A
  0
DICTIONARY
  5
22C
330
22B
100
AcDbDictionary
280
     1
281
     1
  3
TC_EXTENDED_DATA
360
22D
  0
DICTIONARY
  5
22F
330
22E
100
AcDbDictionary
280
     1
281
     1
  3
TC_EXTENDED_DATA
360
230
  0
DICTIONARY
  5
232
330
231
100
AcDbDictionary
280
     1
281
     1
  3
TC_EXTENDED_DATA
360
233
  0
DICTIONARY
  5
235
330
234
100
AcDbDictionary
280
     1
281
     1
  3
TC_EXTENDED_DATA
360
236
  0
DICTIONARY
  5
238
330
237
100
AcDbDictionary
280
     1
281
     1
  3
TC_EXTENDED_DATA
360
239
  0
DICTIONARY
  5
23B
330
23A
100
AcDbDictionary
280
     1
281
     1
  3
TC_EXTENDED_DATA
360
23C
  0
DICTIONARY
  5
23E
330
23D
100
AcDbDictionary
280
     1
281
     1
  3
TC_EXTENDED_DATA
360
23F
  0
DICTIONARY
  5
241
330
240
100
AcDbDictionary
280
     1
281
     1
  3
TC_EXTENDED_DATA
360
242
  0
DICTIONARY
  5
244
330
243
100
AcDbDictionary
280
     1
281
     1
  3
TC_EXTENDED_DATA
360
245
  0
DICTIONARY
  5
247
330
246
100
AcDbDictionary
280
     1
281
     1
  3
TC_EXTENDED_DATA
360
248
  0
DICTIONARY
  5
24A
330
249
100
AcDbDictionary
280
     1
281
     1
  3
TC_EXTENDED_DATA
360
24B
  0
DICTIONARY
  5
24D
330
24C
100
AcDbDictionary
280
     1
281
     1
  3
TC_EXTENDED_DATA
360
24E
  0
DICTIONARY
  5
250
330
24F
100
AcDbDictionary
280
     1
281
     1
  3
TC_EXTENDED_DATA
360
251
  0
DICTIONARY
  5
253
330
252
100
AcDbDictionary
280
     1
281
     1
  3
TC_EXTENDED_DATA
360
254
  0
DICTIONARY
  5
256
330
255
100
AcDbDictionary
280
     1
281
     1
  3
TC_EXTENDED_DATA
360
257
  0
DICTIONARY
  5
259
330
258
100
AcDbDictionary
280
     1
281
     1
  3
TC_EXTENDED_DATA
360
25A
  0
DICTIONARY
  5
25C
330
25B
100
AcDbDictionary
280
     1
281
     1
  3
TC_EXTENDED_DATA
360
25D
  0
DICTIONARY
  5
25F
330
25E
100
AcDbDictionary
280
     1
281
     1
  3
TC_EXTENDED_DATA
360
260
  0
DICTIONARY
  5
262
330
261
100
AcDbDictionary
280
     1
281
     1
  3
TC_EXTENDED_DATA
360
263
  0
DICTIONARY
  5
265
330
264
100
AcDbDictionary
280
     1
281
     1
  3
TC_EXTENDED_DATA
360
266
  0
DICTIONARY
  5
268
330
267
100
AcDbDictionary
280
     1
281
     1
  3
TC_EXTENDED_DATA
360
269
  0
DICTIONARY
  5
26C
330
26B
100
AcDbDictionary
280
     1
281
     1
  3
TC_EXTENDED_DATA
360
26D
  0
DICTIONARY
  5
26F
330
26E
100
AcDbDictionary
280
     1
281
     1
  3
TC_EXTENDED_DATA
360
270
  0
DICTIONARY
  5
272
330
271
100
AcDbDictionary
280
     1
281
     1
  3
TC_EXTENDED_DATA
360
273
  0
DICTIONARY
  5
275
330
274
100
AcDbDictionary
280
     1
281
     1
  3
TC_EXTENDED_DATA
360
276
  0
DICTIONARY
  5
278
330
277
100
AcDbDictionary
280
     1
281
     1
  3
TC_EXTENDED_DATA
360
279
  0
DICTIONARY
  5
27B
330
27A
100
AcDbDictionary
280
     1
281
     1
  3
TC_EXTENDED_DATA
360
27C
  0
DICTIONARY
  5
27E
330
27D
100
AcDbDictionary
280
     1
281
     1
  3
TC_EXTENDED_DATA
360
27F
  0
DICTIONARY
  5
281
330
280
100
AcDbDictionary
280
     1
281
     1
  3
TC_EXTENDED_DATA
360
282
  0
DICTIONARY
  5
284
330
283
100
AcDbDictionary
280
     1
281
     1
  3
TC_EXTENDED_DATA
360
285
  0
DICTIONARY
  5
287
330
286
100
AcDbDictionary
280
     1
281
     1
  3
TC_EXTENDED_DATA
360
288
  0
DICTIONARY
  5
28A
330
289
100
AcDbDictionary
280
     1
281
     1
  3
TC_EXTENDED_DATA
360
28B
  0
DICTIONARY
  5
28D
330
28C
100
AcDbDictionary
280
     1
281
     1
  3
TC_EXTENDED_DATA
360
28E
  0
DICTIONARY
  5
290
330
28F
100
AcDbDictionary
280
     1
281
     1
  3
TC_EXTENDED_DATA
360
291
  0
DICTIONARY
  5
293
330
292
100
AcDbDictionary
280
     1
281
     1
  3
TC_EXTENDED_DATA
360
294
  0
DICTIONARY
  5
296
330
295
100
AcDbDictionary
280
     1
281
     1
  3
TC_EXTENDED_DATA
360
297
  0
DICTIONARY
  5
299
330
298
100
AcDbDictionary
280
     1
281
     1
  3
TC_EXTENDED_DATA
360
29A
  0
DICTIONARY
  5
29C
330
29B
100
AcDbDictionary
280
     1
281
     1
  3
TC_EXTENDED_DATA
360
29D
  0
DICTIONARY
  5
29F
330
29E
100
AcDbDictionary
280
     1
281
     1
  3
TC_EXTENDED_DATA
360
2A0
  0
DICTIONARY
  5
D
102
{ACAD_REACTORS
330
C
102
}
330
C
100
AcDbDictionary
281
     1
  0
DICTIONARY
  5
1A
102
{ACAD_REACTORS
330
C
102
}
330
C
100
AcDbDictionary
281
     1
  3
Model
350
22
  3
Papier_1
350
1E
  0
DICTIONARY
  5
3B
102
{ACAD_REACTORS
330
C
102
}
330
C
100
AcDbDictionary
281
     1
  3
ByBlock
350
3D
  3
ByLayer
350
3C
  3
Global
350
3E
  0
DICTIONARY
  5
15C
102
{ACAD_REACTORS
330
C
102
}
330
C
100
AcDbDictionary
281
     1
  3
Standard
350
15D
  0
DICTIONARY
  5
17
102
{ACAD_REACTORS
330
C
102
}
330
C
100
AcDbDictionary
281
     1
  3
Standard
350
18
  0
DICTIONARY
  5
19
102
{ACAD_REACTORS
330
C
102
}
330
C
100
AcDbDictionary
281
     1
  0
ACDBDICTIONARYWDFLT
  5
E
102
{ACAD_REACTORS
330
C
102
}
330
C
100
AcDbDictionary
281
     1
  3
Normal
350
F
100
AcDbDictionaryWithDefault
340
F
  0
DICTIONARY
  5
16A
102
{ACAD_REACTORS
330
C
102
}
330
C
100
AcDbDictionary
281
     1
  3
Standard
350
16B
  0
DICTIONARY
  5
2A
102
{ACAD_REACTORS
330
C
102
}
330
C
100
AcDbDictionary
281
     1
  3
2dWireframe
350
2F
  3
3D Hidden
350
31
  3
3dWireframe
350
30
  3
Basic
350
32
  3
Brighten
350
36
  3
ColorChange
350
3A
  3
Conceptual
350
34
  3
Dim
350
35
  3
Facepattern
350
39
  3
Flat
350
2B
  3
FlatWithEdges
350
2C
  3
Gouraud
350
2D
  3
GouraudWithEdges
350
2E
  3
Linepattern
350
38
  3
Realistic
350
33
  3
Thicken
350
37
  0
XRECORD
  5
432
102
{ACAD_REACTORS
330
C
102
}
330
C
100
AcDbXrecord
280
     1
 90
        1
330
16B
  0
TCOPTIONALDATA
  5
170
102
{ACAD_REACTORS
330
16F
102
}
330
16F
100
TcOptionalData
 70
     2
 70
    32
 40
3.0
  0
TCOPTIONALDATA
  5
173
102
{ACAD_REACTORS
330
172
102
}
330
172
100
TcOptionalData
 70
     2
 70
    32
 40
3.0
  0
TCOPTIONALDATA
  5
176
102
{ACAD_REACTORS
330
175
102
}
330
175
100
TcOptionalData
 70
     2
 70
    32
 40
3.0
  0
TCOPTIONALDATA
  5
179
102
{ACAD_REACTORS
330
178
102
}
330
178
100
TcOptionalData
 70
     2
 70
    32
 40
3.0
  0
TCOPTIONALDATA
  5
17C
102
{ACAD_REACTORS
330
17B
102
}
330
17B
100
TcOptionalData
 70
     2
 70
    32
 40
3.0
  0
TCOPTIONALDATA
  5
17F
102
{ACAD_REACTORS
330
17E
102
}
330
17E
100
TcOptionalData
 70
     2
 70
    32
 40
3.0
  0
TCOPTIONALDATA
  5
182
102
{ACAD_REACTORS
330
181
102
}
330
181
100
TcOptionalData
 70
     2
 70
    32
 40
3.0
  0
TCOPTIONALDATA
  5
185
102
{ACAD_REACTORS
330
184
102
}
330
184
100
TcOptionalData
 70
     2
 70
    32
 40
3.0
  0
TCOPTIONALDATA
  5
188
102
{ACAD_REACTORS
330
187
102
}
330
187
100
TcOptionalData
 70
     2
 70
    32
 40
3.0
  0
TCOPTIONALDATA
  5
18B
102
{ACAD_REACTORS
330
18A
102
}
330
18A
100
TcOptionalData
 70
     2
 70
    32
 40
3.0
  0
TCOPTIONALDATA
  5
18E
102
{ACAD_REACTORS
330
18D
102
}
330
18D
100
TcOptionalData
 70
     2
 70
    32
 40
3.0
  0
TCOPTIONALDATA
  5
191
102
{ACAD_REACTORS
330
190
102
}
330
190
100
TcOptionalData
 70
     2
 70
    32
 40
3.0
  0
TCOPTIONALDATA
  5
194
102
{ACAD_REACTORS
330
193
102
}
330
193
100
TcOptionalData
 70
     2
 70
    32
 40
3.0
  0
TCOPTIONALDATA
  5
2A4
102
{ACAD_REACTORS
330
2A3
102
}
330
2A3
100
TcOptionalData
 70
     2
 70
    32
 40
3.0
  0
TCOPTIONALDATA
  5
2A7
102
{ACAD_REACTORS
330
2A6
102
}
330
2A6
100
TcOptionalData
 70
     2
 70
    32
 40
3.0
  0
TCOPTIONALDATA
  5
2AA
102
{ACAD_REACTORS
330
2A9
102
}
330
2A9
100
TcOptionalData
 70
     2
 70
    32
 40
3.0
  0
TCOPTIONALDATA
  5
2AD
102
{ACAD_REACTORS
330
2AC
102
}
330
2AC
100
TcOptionalData
 70
     2
 70
    32
 40
3.0
  0
TCOPTIONALDATA
  5
2B0
102
{ACAD_REACTORS
330
2AF
102
}
330
2AF
100
TcOptionalData
 70
     2
 70
    32
 40
3.0
  0
TCOPTIONALDATA
  5
2B3
102
{ACAD_REACTORS
330
2B2
102
}
330
2B2
100
TcOptionalData
 70
     2
 70
    32
 40
3.0
  0
TCOPTIONALDATA
  5
2B6
102
{ACAD_REACTORS
330
2B5
102
}
330
2B5
100
TcOptionalData
 70
     2
 70
    32
 40
3.0
  0
TCOPTIONALDATA
  5
2B9
102
{ACAD_REACTORS
330
2B8
102
}
330
2B8
100
TcOptionalData
 70
     2
 70
    32
 40
3.0
  0
TCOPTIONALDATA
  5
2BC
102
{ACAD_REACTORS
330
2BB
102
}
330
2BB
100
TcOptionalData
 70
     2
 70
    32
 40
3.0
  0
TCOPTIONALDATA
  5
2BF
102
{ACAD_REACTORS
330
2BE
102
}
330
2BE
100
TcOptionalData
 70
     2
 70
    32
 40
3.0
  0
TCOPTIONALDATA
  5
2C2
102
{ACAD_REACTORS
330
2C1
102
}
330
2C1
100
TcOptionalData
 70
     2
 70
    32
 40
3.0
  0
TCOPTIONALDATA
  5
2C5
102
{ACAD_REACTORS
330
2C4
102
}
330
2C4
100
TcOptionalData
 70
     2
 70
    32
 40
3.0
  0
TCOPTIONALDATA
  5
2C8
102
{ACAD_REACTORS
330
2C7
102
}
330
2C7
100
TcOptionalData
 70
     2
 70
    32
 40
3.0
  0
TCOPTIONALDATA
  5
2CE
102
{ACAD_REACTORS
330
2CD
102
}
330
2CD
100
TcOptionalData
 70
     2
 70
    32
 40
3.0
  0
TCOPTIONALDATA
  5
2D4
102
{ACAD_REACTORS
330
2D3
102
}
330
2D3
100
TcOptionalData
 70
     2
 70
    32
 40
3.0
  0
TCOPTIONALDATA
  5
2DA
102
{ACAD_REACTORS
330
2D9
102
}
330
2D9
100
TcOptionalData
 70
     2
 70
    32
 40
3.0
  0
TCOPTIONALDATA
  5
2FE
102
{ACAD_REACTORS
330
2FD
102
}
330
2FD
100
TcOptionalData
 70
     2
 70
    32
 40
3.0
  0
TCOPTIONALDATA
  5
301
102
{ACAD_REACTORS
330
300
102
}
330
300
100
TcOptionalData
 70
     2
 70
    32
 40
3.0
  0
TCOPTIONALDATA
  5
325
102
{ACAD_REACTORS
330
324
102
}
330
324
100
TcOptionalData
 70
     2
 70
    32
 40
3.0
  0
TCOPTIONALDATA
  5
328
102
{ACAD_REACTORS
330
327
102
}
330
327
100
TcOptionalData
 70
     2
 70
    32
 40
3.0
  0
TCOPTIONALDATA
  5
32B
102
{ACAD_REACTORS
330
32A
102
}
330
32A
100
TcOptionalData
 70
     2
 70
    32
 40
3.0
  0
TCOPTIONALDATA
  5
32E
102
{ACAD_REACTORS
330
32D
102
}
330
32D
100
TcOptionalData
 70
     2
 70
    32
 40
3.0
  0
TCOPTIONALDATA
  5
331
102
{ACAD_REACTORS
330
330
102
}
330
330
100
TcOptionalData
 70
     2
 70
    32
 40
3.0
  0
TCOPTIONALDATA
  5
355
102
{ACAD_REACTORS
330
354
102
}
330
354
100
TcOptionalData
 70
     2
 70
    32
 40
3.0
  0
TCOPTIONALDATA
  5
358
102
{ACAD_REACTORS
330
357
102
}
330
357
100
TcOptionalData
 70
     2
 70
    32
 40
3.0
  0
TCOPTIONALDATA
  5
37C
102
{ACAD_REACTORS
330
37B
102
}
330
37B
100
TcOptionalData
 70
     2
 70
    32
 40
3.0
  0
TCOPTIONALDATA
  5
37F
102
{ACAD_REACTORS
330
37E
102
}
330
37E
100
TcOptionalData
 70
     2
 70
    32
 40
3.0
  0
TCOPTIONALDATA
  5
382
102
{ACAD_REACTORS
330
381
102
}
330
381
100
TcOptionalData
 70
     2
 70
    32
 40
3.0
  0
TCOPTIONALDATA
  5
385
102
{ACAD_REACTORS
330
384
102
}
330
384
100
TcOptionalData
 70
     2
 70
    32
 40
3.0
  0
TCOPTIONALDATA
  5
388
102
{ACAD_REACTORS
330
387
102
}
330
387
100
TcOptionalData
 70
     2
 70
    32
 40
3.0
  0
TCOPTIONALDATA
  5
38B
102
{ACAD_REACTORS
330
38A
102
}
330
38A
100
TcOptionalData
 70
     2
 70
    32
 40
3.0
  0
TCOPTIONALDATA
  5
38E
102
{ACAD_REACTORS
330
38D
102
}
330
38D
100
TcOptionalData
 70
     2
 70
    32
 40
3.0
  0
TCOPTIONALDATA
  5
391
102
{ACAD_REACTORS
330
390
102
}
330
390
100
TcOptionalData
 70
     2
 70
    32
 40
3.0
  0
TCOPTIONALDATA
  5
394
102
{ACAD_REACTORS
330
393
102
}
330
393
100
TcOptionalData
 70
     2
 70
    32
 40
3.0
  0
TCOPTIONALDATA
  5
397
102
{ACAD_REACTORS
330
396
102
}
330
396
100
TcOptionalData
 70
     2
 70
    32
 40
3.0
  0
TCOPTIONALDATA
  5
39A
102
{ACAD_REACTORS
330
399
102
}
330
399
100
TcOptionalData
 70
     2
 70
    32
 40
3.0
  0
TCOPTIONALDATA
  5
39D
102
{ACAD_REACTORS
330
39C
102
}
330
39C
100
TcOptionalData
 70
     2
 70
    32
 40
3.0
  0
TCOPTIONALDATA
  5
3A0
102
{ACAD_REACTORS
330
39F
102
}
330
39F
100
TcOptionalData
 70
     2
 70
    32
 40
3.0
  0
TCOPTIONALDATA
  5
3A3
102
{ACAD_REACTORS
330
3A2
102
}
330
3A2
100
TcOptionalData
 70
     2
 70
    32
 40
3.0
  0
TCOPTIONALDATA
  5
3A6
102
{ACAD_REACTORS
330
3A5
102
}
330
3A5
100
TcOptionalData
 70
     2
 70
    32
 40
3.0
  0
TCOPTIONALDATA
  5
3A9
102
{ACAD_REACTORS
330
3A8
102
}
330
3A8
100
TcOptionalData
 70
     2
 70
    32
 40
3.0
  0
TCOPTIONALDATA
  5
3AC
102
{ACAD_REACTORS
330
3AB
102
}
330
3AB
100
TcOptionalData
 70
     2
 70
    32
 40
3.0
  0
TCOPTIONALDATA
  5
3AF
102
{ACAD_REACTORS
330
3AE
102
}
330
3AE
100
TcOptionalData
 70
     2
 70
    32
 40
3.0
  0
TCOPTIONALDATA
  5
3B2
102
{ACAD_REACTORS
330
3B1
102
}
330
3B1
100
TcOptionalData
 70
     2
 70
    32
 40
3.0
  0
TCOPTIONALDATA
  5
3B5
102
{ACAD_REACTORS
330
3B4
102
}
330
3B4
100
TcOptionalData
 70
     2
 70
    32
 40
3.0
  0
TCOPTIONALDATA
  5
3B8
102
{ACAD_REACTORS
330
3B7
102
}
330
3B7
100
TcOptionalData
 70
     2
 70
    32
 40
3.0
  0
TCOPTIONALDATA
  5
3BB
102
{ACAD_REACTORS
330
3BA
102
}
330
3BA
100
TcOptionalData
 70
     2
 70
    32
 40
3.0
  0
TCOPTIONALDATA
  5
3BE
102
{ACAD_REACTORS
330
3BD
102
}
330
3BD
100
TcOptionalData
 70
     2
 70
    32
 40
3.0
  0
TCOPTIONALDATA
  5
3C1
102
{ACAD_REACTORS
330
3C0
102
}
330
3C0
100
TcOptionalData
 70
     2
 70
    32
 40
3.0
  0
TCOPTIONALDATA
  5
3C4
102
{ACAD_REACTORS
330
3C3
102
}
330
3C3
100
TcOptionalData
 70
     2
 70
    32
 40
3.0
  0
TCOPTIONALDATA
  5
3C7
102
{ACAD_REACTORS
330
3C6
102
}
330
3C6
100
TcOptionalData
 70
     2
 70
    32
 40
3.0
  0
TCOPTIONALDATA
  5
3CA
102
{ACAD_REACTORS
330
3C9
102
}
330
3C9
100
TcOptionalData
 70
     2
 70
    32
 40
3.0
  0
TCOPTIONALDATA
  5
3CD
102
{ACAD_REACTORS
330
3CC
102
}
330
3CC
100
TcOptionalData
 70
     2
 70
    32
 40
3.0
  0
TCOPTIONALDATA
  5
3D0
102
{ACAD_REACTORS
330
3CF
102
}
330
3CF
100
TcOptionalData
 70
     2
 70
    32
 40
3.0
  0
TCOPTIONALDATA
  5
3D3
102
{ACAD_REACTORS
330
3D2
102
}
330
3D2
100
TcOptionalData
 70
     2
 70
    32
 40
3.0
  0
TCOPTIONALDATA
  5
3D6
102
{ACAD_REACTORS
330
3D5
102
}
330
3D5
100
TcOptionalData
 70
     2
 70
    32
 40
3.0
  0
TCOPTIONALDATA
  5
3D9
102
{ACAD_REACTORS
330
3D8
102
}
330
3D8
100
TcOptionalData
 70
     2
 70
    32
 40
3.0
  0
TCOPTIONALDATA
  5
3DC
102
{ACAD_REACTORS
330
3DB
102
}
330
3DB
100
TcOptionalData
 70
     2
 70
    32
 40
3.0
  0
TCOPTIONALDATA
  5
3DF
102
{ACAD_REACTORS
330
3DE
102
}
330
3DE
100
TcOptionalData
 70
     2
 70
    32
 40
3.0
  0
TCOPTIONALDATA
  5
3E2
102
{ACAD_REACTORS
330
3E1
102
}
330
3E1
100
TcOptionalData
 70
     2
 70
    32
 40
3.0
  0
TCOPTIONALDATA
  5
3E5
102
{ACAD_REACTORS
330
3E4
102
}
330
3E4
100
TcOptionalData
 70
     2
 70
    32
 40
3.0
  0
TCOPTIONALDATA
  5
3E8
102
{ACAD_REACTORS
330
3E7
102
}
330
3E7
100
TcOptionalData
 70
     2
 70
    32
 40
3.0
  0
TCOPTIONALDATA
  5
3EB
102
{ACAD_REACTORS
330
3EA
102
}
330
3EA
100
TcOptionalData
 70
     2
 70
    32
 40
3.0
  0
TCOPTIONALDATA
  5
3EE
102
{ACAD_REACTORS
330
3ED
102
}
330
3ED
100
TcOptionalData
 70
     2
 70
    32
 40
3.0
  0
TCOPTIONALDATA
  5
3F1
102
{ACAD_REACTORS
330
3F0
102
}
330
3F0
100
TcOptionalData
 70
     2
 70
    32
 40
3.0
  0
TCOPTIONALDATA
  5
3F4
102
{ACAD_REACTORS
330
3F3
102
}
330
3F3
100
TcOptionalData
 70
     2
 70
    32
 40
3.0
  0
TCOPTIONALDATA
  5
3F7
102
{ACAD_REACTORS
330
3F6
102
}
330
3F6
100
TcOptionalData
 70
     2
 70
    32
 40
3.0
  0
TCOPTIONALDATA
  5
3FA
102
{ACAD_REACTORS
330
3F9
102
}
330
3F9
100
TcOptionalData
 70
     2
 70
    32
 40
3.0
  0
TCOPTIONALDATA
  5
3FD
102
{ACAD_REACTORS
330
3FC
102
}
330
3FC
100
TcOptionalData
 70
     2
 70
    32
 40
3.0
  0
TCOPTIONALDATA
  5
400
102
{ACAD_REACTORS
330
3FF
102
}
330
3FF
100
TcOptionalData
 70
     2
 70
    32
 40
3.0
  0
TCOPTIONALDATA
  5
403
102
{ACAD_REACTORS
330
402
102
}
330
402
100
TcOptionalData
 70
     2
 70
    32
 40
3.0
  0
TCOPTIONALDATA
  5
406
102
{ACAD_REACTORS
330
405
102
}
330
405
100
TcOptionalData
 70
     2
 70
    32
 40
3.0
  0
TCOPTIONALDATA
  5
409
102
{ACAD_REACTORS
330
408
102
}
330
408
100
TcOptionalData
 70
     2
 70
    32
 40
3.0
  0
TCOPTIONALDATA
  5
40C
102
{ACAD_REACTORS
330
40B
102
}
330
40B
100
TcOptionalData
 70
     2
 70
    32
 40
3.0
  0
TCOPTIONALDATA
  5
1A0
102
{ACAD_REACTORS
330
19F
102
}
330
19F
100
TcOptionalData
 70
     2
 70
    32
 40
3.0
  0
TCOPTIONALDATA
  5
1AC
102
{ACAD_REACTORS
330
1AB
102
}
330
1AB
100
TcOptionalData
 70
     2
 70
    32
 40
3.0
  0
TCOPTIONALDATA
  5
1B4
102
{ACAD_REACTORS
330
1B3
102
}
330
1B3
100
TcOptionalData
 70
     2
 70
    32
 40
3.0
  0
TCOPTIONALDATA
  5
1B7
102
{ACAD_REACTORS
330
1B6
102
}
330
1B6
100
TcOptionalData
 70
     2
 70
    32
 40
3.0
  0
TCOPTIONALDATA
  5
1BA
102
{ACAD_REACTORS
330
1B9
102
}
330
1B9
100
TcOptionalData
 70
     2
 70
    32
 40
3.0
  0
TCOPTIONALDATA
  5
1BD
102
{ACAD_REACTORS
330
1BC
102
}
330
1BC
100
TcOptionalData
 70
     2
 70
    32
 40
3.0
  0
TCOPTIONALDATA
  5
1C0
102
{ACAD_REACTORS
330
1BF
102
}
330
1BF
100
TcOptionalData
 70
     2
 70
    32
 40
3.0
  0
TCOPTIONALDATA
  5
1C3
102
{ACAD_REACTORS
330
1C2
102
}
330
1C2
100
TcOptionalData
 70
     2
 70
    32
 40
3.0
  0
TCOPTIONALDATA
  5
1C6
102
{ACAD_REACTORS
330
1C5
102
}
330
1C5
100
TcOptionalData
 70
     2
 70
    32
 40
3.0
  0
TCOPTIONALDATA
  5
1C9
102
{ACAD_REACTORS
330
1C8
102
}
330
1C8
100
TcOptionalData
 70
     2
 70
    32
 40
3.0
  0
TCOPTIONALDATA
  5
1CC
102
{ACAD_REACTORS
330
1CB
102
}
330
1CB
100
TcOptionalData
 70
     2
 70
    32
 40
3.0
  0
TCOPTIONALDATA
  5
1CF
102
{ACAD_REACTORS
330
1CE
102
}
330
1CE
100
TcOptionalData
 70
     2
 70
    32
 40
3.0
  0
TCOPTIONALDATA
  5
1D2
102
{ACAD_REACTORS
330
1D1
102
}
330
1D1
100
TcOptionalData
 70
     2
 70
    32
 40
3.0
  0
TCOPTIONALDATA
  5
1D5
102
{ACAD_REACTORS
330
1D4
102
}
330
1D4
100
TcOptionalData
 70
     2
 70
    32
 40
3.0
  0
TCOPTIONALDATA
  5
1D8
102
{ACAD_REACTORS
330
1D7
102
}
330
1D7
100
TcOptionalData
 70
     2
 70
    32
 40
3.0
  0
TCOPTIONALDATA
  5
1DB
102
{ACAD_REACTORS
330
1DA
102
}
330
1DA
100
TcOptionalData
 70
     2
 70
    32
 40
3.0
  0
TCOPTIONALDATA
  5
1DE
102
{ACAD_REACTORS
330
1DD
102
}
330
1DD
100
TcOptionalData
 70
     2
 70
    32
 40
3.0
  0
TCOPTIONALDATA
  5
1E1
102
{ACAD_REACTORS
330
1E0
102
}
330
1E0
100
TcOptionalData
 70
     2
 70
    32
 40
3.0
  0
TCOPTIONALDATA
  5
1E4
102
{ACAD_REACTORS
330
1E3
102
}
330
1E3
100
TcOptionalData
 70
     2
 70
    32
 40
3.0
  0
TCOPTIONALDATA
  5
1E7
102
{ACAD_REACTORS
330
1E6
102
}
330
1E6
100
TcOptionalData
 70
     2
 70
    32
 40
3.0
  0
TCOPTIONALDATA
  5
1EA
102
{ACAD_REACTORS
330
1E9
102
}
330
1E9
100
TcOptionalData
 70
     2
 70
    32
 40
3.0
  0
TCOPTIONALDATA
  5
1ED
102
{ACAD_REACTORS
330
1EC
102
}
330
1EC
100
TcOptionalData
 70
     2
 70
    32
 40
3.0
  0
TCOPTIONALDATA
  5
1F0
102
{ACAD_REACTORS
330
1EF
102
}
330
1EF
100
TcOptionalData
 70
     2
 70
    32
 40
3.0
  0
TCOPTIONALDATA
  5
1F3
102
{ACAD_REACTORS
330
1F2
102
}
330
1F2
100
TcOptionalData
 70
     2
 70
    32
 40
3.0
  0
TCOPTIONALDATA
  5
1F6
102
{ACAD_REACTORS
330
1F5
102
}
330
1F5
100
TcOptionalData
 70
     2
 70
    32
 40
3.0
  0
TCOPTIONALDATA
  5
1F9
102
{ACAD_REACTORS
330
1F8
102
}
330
1F8
100
TcOptionalData
 70
     2
 70
    32
 40
3.0
  0
TCOPTIONALDATA
  5
1FC
102
{ACAD_REACTORS
330
1FB
102
}
330
1FB
100
TcOptionalData
 70
     2
 70
    32
 40
3.0
  0
TCOPTIONALDATA
  5
1FF
102
{ACAD_REACTORS
330
1FE
102
}
330
1FE
100
TcOptionalData
 70
     2
 70
    32
 40
3.0
  0
TCOPTIONALDATA
  5
202
102
{ACAD_REACTORS
330
201
102
}
330
201
100
TcOptionalData
 70
     2
 70
    32
 40
3.0
  0
TCOPTIONALDATA
  5
205
102
{ACAD_REACTORS
330
204
102
}
330
204
100
TcOptionalData
 70
     2
 70
    32
 40
3.0
  0
TCOPTIONALDATA
  5
208
102
{ACAD_REACTORS
330
207
102
}
330
207
100
TcOptionalData
 70
     2
 70
    32
 40
3.0
  0
TCOPTIONALDATA
  5
20F
102
{ACAD_REACTORS
330
20E
102
}
330
20E
100
TcOptionalData
 70
     2
 70
    32
 40
3.0
  0
TCOPTIONALDATA
  5
212
102
{ACAD_REACTORS
330
211
102
}
330
211
100
TcOptionalData
 70
     2
 70
    32
 40
3.0
  0
TCOPTIONALDATA
  5
215
102
{ACAD_REACTORS
330
214
102
}
330
214
100
TcOptionalData
 70
     2
 70
    32
 40
3.0
  0
TCOPTIONALDATA
  5
218
102
{ACAD_REACTORS
330
217
102
}
330
217
100
TcOptionalData
 70
     2
 70
    32
 40
3.0
  0
TCOPTIONALDATA
  5
21B
102
{ACAD_REACTORS
330
21A
102
}
330
21A
100
TcOptionalData
 70
     2
 70
    32
 40
3.0
  0
TCOPTIONALDATA
  5
21E
102
{ACAD_REACTORS
330
21D
102
}
330
21D
100
TcOptionalData
 70
     2
 70
    32
 40
3.0
  0
TCOPTIONALDATA
  5
221
102
{ACAD_REACTORS
330
220
102
}
330
220
100
TcOptionalData
 70
     2
 70
    32
 40
3.0
  0
TCOPTIONALDATA
  5
224
102
{ACAD_REACTORS
330
223
102
}
330
223
100
TcOptionalData
 70
     2
 70
    32
 40
3.0
  0
TCOPTIONALDATA
  5
227
102
{ACAD_REACTORS
330
226
102
}
330
226
100
TcOptionalData
 70
     2
 70
    32
 40
3.0
  0
TCOPTIONALDATA
  5
22A
102
{ACAD_REACTORS
330
229
102
}
330
229
100
TcOptionalData
 70
     2
 70
    32
 40
3.0
  0
TCOPTIONALDATA
  5
22D
102
{ACAD_REACTORS
330
22C
102
}
330
22C
100
TcOptionalData
 70
     2
 70
    32
 40
3.0
  0
TCOPTIONALDATA
  5
230
102
{ACAD_REACTORS
330
22F
102
}
330
22F
100
TcOptionalData
 70
     2
 70
    32
 40
3.0
  0
TCOPTIONALDATA
  5
233
102
{ACAD_REACTORS
330
232
102
}
330
232
100
TcOptionalData
 70
     2
 70
    32
 40
3.0
  0
TCOPTIONALDATA
  5
236
102
{ACAD_REACTORS
330
235
102
}
330
235
100
TcOptionalData
 70
     2
 70
    32
 40
3.0
  0
TCOPTIONALDATA
  5
239
102
{ACAD_REACTORS
330
238
102
}
330
238
100
TcOptionalData
 70
     2
 70
    32
 40
3.0
  0
TCOPTIONALDATA
  5
23C
102
{ACAD_REACTORS
330
23B
102
}
330
23B
100
TcOptionalData
 70
     2
 70
    32
 40
3.0
  0
TCOPTIONALDATA
  5
23F
102
{ACAD_REACTORS
330
23E
102
}
330
23E
100
TcOptionalData
 70
     2
 70
    32
 40
3.0
  0
TCOPTIONALDATA
  5
242
102
{ACAD_REACTORS
330
241
102
}
330
241
100
TcOptionalData
 70
     2
 70
    32
 40
3.0
  0
TCOPTIONALDATA
  5
245
102
{ACAD_REACTORS
330
244
102
}
330
244
100
TcOptionalData
 70
     2
 70
    32
 40
3.0
  0
TCOPTIONALDATA
  5
248
102
{ACAD_REACTORS
330
247
102
}
330
247
100
TcOptionalData
 70
     2
 70
    32
 40
3.0
  0
TCOPTIONALDATA
  5
24B
102
{ACAD_REACTORS
330
24A
102
}
330
24A
100
TcOptionalData
 70
     2
 70
    32
 40
3.0
  0
TCOPTIONALDATA
  5
24E
102
{ACAD_REACTORS
330
24D
102
}
330
24D
100
TcOptionalData
 70
     2
 70
    32
 40
3.0
  0
TCOPTIONALDATA
  5
251
102
{ACAD_REACTORS
330
250
102
}
330
250
100
TcOptionalData
 70
     2
 70
    32
 40
3.0
  0
TCOPTIONALDATA
  5
254
102
{ACAD_REACTORS
330
253
102
}
330
253
100
TcOptionalData
 70
     2
 70
    32
 40
3.0
  0
TCOPTIONALDATA
  5
257
102
{ACAD_REACTORS
330
256
102
}
330
256
100
TcOptionalData
 70
     2
 70
    32
 40
3.0
  0
TCOPTIONALDATA
  5
25A
102
{ACAD_REACTORS
330
259
102
}
330
259
100
TcOptionalData
 70
     2
 70
    32
 40
3.0
  0
TCOPTIONALDATA
  5
25D
102
{ACAD_REACTORS
330
25C
102
}
330
25C
100
TcOptionalData
 70
     2
 70
    32
 40
3.0
  0
TCOPTIONALDATA
  5
260
102
{ACAD_REACTORS
330
25F
102
}
330
25F
100
TcOptionalData
 70
     2
 70
    32
 40
3.0
  0
TCOPTIONALDATA
  5
263
102
{ACAD_REACTORS
330
262
102
}
330
262
100
TcOptionalData
 70
     2
 70
    32
 40
3.0
  0
TCOPTIONALDATA
  5
266
102
{ACAD_REACTORS
330
265
102
}
330
265
100
TcOptionalData
 70
     2
 70
    32
 40
3.0
  0
TCOPTIONALDATA
  5
269
102
{ACAD_REACTORS
330
268
102
}
330
268
100
TcOptionalData
 70
     2
 70
    32
 40
3.0
  0
TCOPTIONALDATA
  5
26D
102
{ACAD_REACTORS
330
26C
102
}
330
26C
100
TcOptionalData
 70
     2
 70
    32
 40
3.0
  0
TCOPTIONALDATA
  5
270
102
{ACAD_REACTORS
330
26F
102
}
330
26F
100
TcOptionalData
 70
     2
 70
    32
 40
3.0
  0
TCOPTIONALDATA
  5
273
102
{ACAD_REACTORS
330
272
102
}
330
272
100
TcOptionalData
 70
     2
 70
    32
 40
3.0
  0
TCOPTIONALDATA
  5
276
102
{ACAD_REACTORS
330
275
102
}
330
275
100
TcOptionalData
 70
     2
 70
    32
 40
3.0
  0
TCOPTIONALDATA
  5
279
102
{ACAD_REACTORS
330
278
102
}
330
278
100
TcOptionalData
 70
     2
 70
    32
 40
3.0
  0
TCOPTIONALDATA
  5
27C
102
{ACAD_REACTORS
330
27B
102
}
330
27B
100
TcOptionalData
 70
     2
 70
    32
 40
3.0
  0
TCOPTIONALDATA
  5
27F
102
{ACAD_REACTORS
330
27E
102
}
330
27E
100
TcOptionalData
 70
     2
 70
    32
 40
3.0
  0
TCOPTIONALDATA
  5
282
102
{ACAD_REACTORS
330
281
102
}
330
281
100
TcOptionalData
 70
     2
 70
    32
 40
3.0
  0
TCOPTIONALDATA
  5
285
102
{ACAD_REACTORS
330
284
102
}
330
284
100
TcOptionalData
 70
     2
 70
    32
 40
3.0
  0
TCOPTIONALDATA
  5
288
102
{ACAD_REACTORS
330
287
102
}
330
287
100
TcOptionalData
 70
     2
 70
    32
 40
3.0
  0
TCOPTIONALDATA
  5
28B
102
{ACAD_REACTORS
330
28A
102
}
330
28A
100
TcOptionalData
 70
     2
 70
    32
 40
3.0
  0
TCOPTIONALDATA
  5
28E
102
{ACAD_REACTORS
330
28D
102
}
330
28D
100
TcOptionalData
 70
     2
 70
    32
 40
3.0
  0
TCOPTIONALDATA
  5
291
102
{ACAD_REACTORS
330
290
102
}
330
290
100
TcOptionalData
 70
     2
 70
    32
 40
3.0
  0
TCOPTIONALDATA
  5
294
102
{ACAD_REACTORS
330
293
102
}
330
293
100
TcOptionalData
 70
     2
 70
    32
 40
3.0
  0
TCOPTIONALDATA
  5
297
102
{ACAD_REACTORS
330
296
102
}
330
296
100
TcOptionalData
 70
     2
 70
    32
 40
3.0
  0
TCOPTIONALDATA
  5
29A
102
{ACAD_REACTORS
330
299
102
}
330
299
100
TcOptionalData
 70
     2
 70
    32
 40
3.0
  0
TCOPTIONALDATA
  5
29D
102
{ACAD_REACTORS
330
29C
102
}
330
29C
100
TcOptionalData
 70
     2
 70
    32
 40
3.0
  0
TCOPTIONALDATA
  5
2A0
102
{ACAD_REACTORS
330
29F
102
}
330
29F
100
TcOptionalData
 70
     2
 70
    32
 40
3.0
  0
LAYOUT
  5
22
102
{ACAD_REACTORS
330
1A
102
}
330
1A
100
AcDbPlotSettings
  1

  2
TCAD_Plot
  4
297.00 x 210.00 MM
  6

 40
0.0
 41
0.0
 42
0.0
 43
0.0
 44
297.0
 45
210.0
 46
0.0
 47
0.0
 48
-148.5
 49
-105.0
140
148.5
141
105.0
142
1.0
143
1.0
 70
  1696
 72
     1
 73
     0
 74
     4
  7

 75
     0
 76
     0
 77
     2
 78
   300
147
0.0071177021872206
148
0.0
149
0.0
100
AcDbLayout
  1
Model
 70
     1
 71
     0
 10
0.0
 20
0.0
 11
297.0
 21
210.0
 12
0.0
 22
0.0
 32
0.0
 14
53.37923209112768
 24
128.67791636928
 34
-0.0011999267567401
 15
199.5417693192791
 25
362.5351943855496
 35
0.0
146
0.0
 13
0.0
 23
0.0
 33
0.0
 16
1.0
 26
0.0
 36
0.0
 17
0.0
 27
1.0
 37
0.0
 76
     0
330
1F
331
29
  0
LAYOUT
  5
1E
102
{ACAD_REACTORS
330
1A
102
}
330
1A
100
AcDbPlotSettings
  1

  2
TCAD_Plot
  4
297.00 x 210.00 MM
  6

 40
0.0
 41
0.0
 42
0.0
 43
0.0
 44
297.0
 45
210.0
 46
0.0
 47
0.0
 48
0.0
 49
0.0
140
0.0
141
0.0
142
1.0
143
1.0
 70
   672
 72
     1
 73
     0
 74
     5
  7

 75
    16
 76
     0
 77
     2
 78
   300
147
1.0
148
0.0
149
0.0
100
AcDbLayout
  1
Papier_1
 70
     1
 71
     1
 10
0.0
 20
0.0
 11
0.0
 21
0.0
 12
0.0
 22
0.0
 32
0.0
 14
0.0
 24
0.0
 34
0.0
 15
0.0
 25
0.0
 35
0.0
146
0.0
 13
0.0
 23
0.0
 33
0.0
 16
1.0
 26
0.0
 36
0.0
 17
0.0
 27
1.0
 37
0.0
 76
     0
330
1B
331
40F
  0
MATERIAL
  5
3D
102
{ACAD_REACTORS
330
3B
102
}
330
3B
100
AcDbMaterial
  1
ByBlock
 72
     1
 94
      127
  0
MATERIAL
  5
3C
102
{ACAD_REACTORS
330
3B
102
}
330
3B
100
AcDbMaterial
  1
ByLayer
 72
     1
 94
      127
  0
MATERIAL
  5
3E
102
{ACAD_REACTORS
330
3B
102
}
330
3B
100
AcDbMaterial
  1
Global
 72
     1
 94
      127
  0
MLEADERSTYLE
  5
15D
102
{ACAD_REACTORS
330
15C
102
}
330
15C
100
AcDbMLeaderStyle
170
     2
171
     1
172
     0
 90
        2
 40
0.0
 41
0.0
173
     1
 91
-1056964608
340
14
 92
       -2
290
     1
 42
3.0
291
     1
 43
3.0
  3

341
0
 44
3.0
300

342
11
174
     1
178
     1
175
     1
176
     0
 93
-1056964608
 45
3.0
292
     0
297
     0
 46
0.18
343
0
 94
-1056964608
 47
1.0
 49
1.0
140
1.0
293
     1
141
0.0
294
     1
177
     0
142
1.0
295
     0
296
     0
143
0.125
1001
ACAD_MLEADERVER
1070
     2
  0
MLINESTYLE
  5
18
102
{ACAD_REACTORS
330
17
102
}
330
17
100
AcDbMlineStyle
  2
Standard
 70
     0
  3

 62
     0
 51
90.0
 52
90.0
 71
     3
 49
5.0
 62
     0
  6
BYLAYER
 49
0.0
 62
     0
  6
BYLAYER
 49
-5.0
 62
     0
  6
BYLAYER
  0
ACDBPLACEHOLDER
  5
F
102
{ACAD_REACTORS
330
E
102
}
330
E
  0
TABLESTYLE
  5
16B
102
{ACAD_REACTORS
330
16A
102
}
102
{ACAD_XDICTIONARY
360
430
102
}
330
16A
100
AcDbTableStyle
  3

 70
     0
 71
     0
 40
1.666666666666667
 41
1.666666666666667
280
     0
281
     0
  7
Standard
140
3.0
170
     5
 62
     0
 63
   257
283
     1
 90
        4
 91
        0
  1

274
    -2
284
     1
 64
     0
275
    -2
285
     1
 65
     0
276
    -2
286
     1
 66
     0
277
    -2
287
     1
 67
     0
278
    -2
288
     1
 68
     0
279
    -2
289
     1
 69
     0
  7
Standard
140
3.0
170
     5
 62
     0
 63
   257
283
     1
 90
        4
 91
        0
  1

274
    -2
284
     1
 64
     0
275
    -2
285
     1
 65
     0
276
    -2
286
     1
 66
     0
277
    -2
287
     1
 67
     0
278
    -2
288
     1
 68
     0
279
    -2
289
     1
 69
     0
  7
Standard
140
3.0
170
     5
 62
     0
 63
   257
283
     1
 90
        4
 91
        0
  1

274
    -2
284
     1
 64
     0
275
    -2
285
     1
 65
     0
276
    -2
286
     1
 66
     0
277
    -2
287
     1
 67
     0
278
    -2
288
     1
 68
     0
279
    -2
289
     1
 69
     0
  0
VISUALSTYLE
  5
2F
102
{ACAD_REACTORS
330
2A
102
}
102
{ACAD_XDICTIONARY
360
418
102
}
330
2A
100
AcDbVisualStyle
  2
2dWireframe
 70
     4
 71
     0
 72
     2
 73
     0
 90
        0
 40
-0.6
 41
-30.0
 62
     5
 63
     7
421
 16777215
 74
     1
 91
        4
 64
     7
 65
   257
 75
     1
175
     1
 42
1.0
 92
        0
 66
   257
 43
1.0
 76
     1
 77
     6
 78
     2
 67
     7
 79
     5
170
     0
171
     0
290
     0
174
     0
 93
        1
 44
0.0
173
     0
291
     0
 45
0.0
  0
VISUALSTYLE
  5
31
102
{ACAD_REACTORS
330
2A
102
}
102
{ACAD_XDICTIONARY
360
41C
102
}
330
2A
100
AcDbVisualStyle
  2
3D Hidden
 70
     6
 71
     1
 72
     2
 73
     2
 90
        0
 40
-0.6
 41
-30.0
 62
     5
 63
     7
421
 16777215
 74
     2
 91
        2
 64
     7
 65
   257
 75
     2
175
     1
 42
40.0
 92
        0
 66
   257
 43
1.0
 76
     1
 77
     6
 78
     2
 67
     7
 79
     3
170
     0
171
     0
290
     0
174
     0
 93
        1
 44
0.0
173
     0
291
     0
 45
0.0
  0
VISUALSTYLE
  5
30
102
{ACAD_REACTORS
330
2A
102
}
102
{ACAD_XDICTIONARY
360
41A
102
}
330
2A
100
AcDbVisualStyle
  2
3dWireframe
 70
     5
 71
     0
 72
     2
 73
     0
 90
        0
 40
-0.6
 41
-30.0
 62
     5
 63
     7
421
 16777215
 74
     1
 91
        4
 64
     7
 65
   257
 75
     1
175
     1
 42
1.0
 92
        0
 66
   257
 43
1.0
 76
     1
 77
     6
 78
     2
 67
     7
 79
     5
170
     0
171
     0
290
     0
174
     0
 93
        1
 44
0.0
173
     0
291
     0
 45
0.0
  0
VISUALSTYLE
  5
32
102
{ACAD_REACTORS
330
2A
102
}
102
{ACAD_XDICTIONARY
360
41E
102
}
330
2A
100
AcDbVisualStyle
  2
Basic
 70
     7
 71
     1
 72
     0
 73
     1
 90
        0
 40
-0.6
 41
-30.0
 62
     5
 63
     7
421
 16777215
 74
     0
 91
        4
 64
     7
 65
   257
 75
     1
175
     1
 42
1.0
 92
        8
 66
     7
 43
1.0
 76
     1
 77
     6
 78
     2
 67
     7
 79
     5
170
     0
171
     0
290
     0
174
     0
 93
        1
 44
0.0
173
     0
291
     1
 45
0.0
  0
VISUALSTYLE
  5
36
102
{ACAD_REACTORS
330
2A
102
}
102
{ACAD_XDICTIONARY
360
426
102
}
330
2A
100
AcDbVisualStyle
  2
Brighten
 70
    12
 71
     2
 72
     2
 73
     0
 90
        0
 40
-0.6
 41
-30.0
 62
     5
 63
     7
421
 16777215
 74
     1
 91
        4
 64
     7
 65
   257
 75
     1
175
     1
 42
1.0
 92
        8
 66
     7
 43
1.0
 76
     1
 77
     6
 78
     2
 67
     7
 79
     5
170
     0
171
     0
290
     0
174
     0
 93
        1
 44
50.0
173
     0
291
     1
 45
0.0
  0
VISUALSTYLE
  5
3A
102
{ACAD_REACTORS
330
2A
102
}
102
{ACAD_XDICTIONARY
360
42E
102
}
330
2A
100
AcDbVisualStyle
  2
ColorChange
 70
    16
 71
     2
 72
     2
 73
     3
 90
        0
 40
-0.6
 41
-30.0
 62
     5
 63
     8
421
  8421504
 74
     1
 91
        4
 64
     7
 65
   257
 75
     1
175
     1
 42
1.0
 92
        8
 66
     8
424
  8421504
 43
1.0
 76
     1
 77
     6
 78
     2
 67
     7
 79
     5
170
     0
171
     0
290
     0
174
     0
 93
        1
 44
0.0
173
     0
291
     1
 45
0.0
  0
VISUALSTYLE
  5
34
102
{ACAD_REACTORS
330
2A
102
}
102
{ACAD_XDICTIONARY
360
422
102
}
330
2A
100
AcDbVisualStyle
  2
Conceptual
 70
     9
 71
     3
 72
     2
 73
     0
 90
        0
 40
-0.6
 41
-30.0
 62
     5
 63
     7
421
 16777215
 74
     2
 91
        2
 64
     7
 65
   257
 75
     1
175
     1
 42
40.0
 92
        8
 66
     7
 43
1.0
 76
     1
 77
     6
 78
     2
 67
     7
 79
     3
170
     0
171
     0
290
     0
174
     0
 93
        1
 44
0.0
173
     0
291
     0
 45
0.0
  0
VISUALSTYLE
  5
35
102
{ACAD_REACTORS
330
2A
102
}
102
{ACAD_XDICTIONARY
360
424
102
}
330
2A
100
AcDbVisualStyle
  2
Dim
 70
    11
 71
     2
 72
     2
 73
     0
 90
        0
 40
-0.6
 41
-30.0
 62
     5
 63
     7
421
 16777215
 74
     1
 91
        4
 64
     7
 65
   257
 75
     1
175
     1
 42
1.0
 92
        8
 66
     7
 43
1.0
 76
     1
 77
     6
 78
     2
 67
     7
 79
     5
170
     0
171
     0
290
     0
174
     0
 93
        1
 44
-50.0
173
     0
291
     1
 45
0.0
  0
VISUALSTYLE
  5
39
102
{ACAD_REACTORS
330
2A
102
}
102
{ACAD_XDICTIONARY
360
42C
102
}
330
2A
100
AcDbVisualStyle
  2
Facepattern
 70
    15
 71
     2
 72
     2
 73
     0
 90
        0
 40
-0.6
 41
-30.0
 62
     5
 63
     7
421
 16777215
 74
     1
 91
        4
 64
     7
 65
   257
 75
     1
175
     1
 42
1.0
 92
        8
 66
     7
 43
1.0
 76
     1
 77
     6
 78
     2
 67
     7
 79
     5
170
     0
171
     0
290
     0
174
     0
 93
        1
 44
0.0
173
     0
291
     1
 45
0.0
  0
VISUALSTYLE
  5
2B
102
{ACAD_REACTORS
330
2A
102
}
102
{ACAD_XDICTIONARY
360
410
102
}
330
2A
100
AcDbVisualStyle
  2
Flat
 70
     0
 71
     2
 72
     1
 73
     1
 90
        2
 40
-0.6
 41
30.0
 62
     5
 63
     7
421
 16777215
 74
     0
 91
        4
 64
     7
 65
   257
 75
     1
175
     1
 42
1.0
 92
        8
 66
     7
 43
1.0
 76
     1
 77
     6
 78
     2
 67
     7
 79
     5
170
     0
171
     0
290
     0
174
     0
 93
       13
 44
0.0
173
     0
291
     1
 45
0.0
  0
VISUALSTYLE
  5
2C
102
{ACAD_REACTORS
330
2A
102
}
102
{ACAD_XDICTIONARY
360
412
102
}
330
2A
100
AcDbVisualStyle
  2
FlatWithEdges
 70
     1
 71
     2
 72
     1
 73
     1
 90
        2
 40
-0.6
 41
30.0
 62
     5
 63
     7
421
 16777215
 74
     1
 91
        4
 64
     7
 65
   257
 75
     1
175
     1
 42
1.0
 92
        0
 66
   257
 43
1.0
 76
     1
 77
     6
 78
     2
 67
     7
 79
     5
170
     0
171
     0
290
     0
174
     0
 93
       13
 44
0.0
173
     0
291
     1
 45
0.0
  0
VISUALSTYLE
  5
2D
102
{ACAD_REACTORS
330
2A
102
}
102
{ACAD_XDICTIONARY
360
414
102
}
330
2A
100
AcDbVisualStyle
  2
Gouraud
 70
     2
 71
     2
 72
     2
 73
     1
 90
        2
 40
-0.6
 41
30.0
 62
     5
 63
     7
421
 16777215
 74
     0
 91
        4
 64
     7
 65
   257
 75
     1
175
     1
 42
1.0
 92
        0
 66
     7
 43
1.0
 76
     1
 77
     6
 78
     2
 67
     7
 79
     5
170
     0
171
     0
290
     0
174
     0
 93
       13
 44
0.0
173
     0
291
     1
 45
0.0
  0
VISUALSTYLE
  5
2E
102
{ACAD_REACTORS
330
2A
102
}
102
{ACAD_XDICTIONARY
360
416
102
}
330
2A
100
AcDbVisualStyle
  2
GouraudWithEdges
 70
     3
 71
     2
 72
     2
 73
     1
 90
        2
 40
-0.6
 41
30.0
 62
     5
 63
     7
421
 16777215
 74
     1
 91
        4
 64
     7
 65
   257
 75
     1
175
     1
 42
1.0
 92
        0
 66
   257
 43
1.0
 76
     1
 77
     6
 78
     2
 67
     7
 79
     5
170
     0
171
     0
290
     0
174
     0
 93
       13
 44
0.0
173
     0
291
     1
 45
0.0
  0
VISUALSTYLE
  5
38
102
{ACAD_REACTORS
330
2A
102
}
102
{ACAD_XDICTIONARY
360
42A
102
}
330
2A
100
AcDbVisualStyle
  2
Linepattern
 70
    14
 71
     2
 72
     2
 73
     0
 90
        0
 40
-0.6
 41
-30.0
 62
     5
 63
     7
421
 16777215
 74
     1
 91
        4
 64
     7
 65
   257
 75
     7
175
     7
 42
1.0
 92
        8
 66
     7
 43
1.0
 76
     1
 77
     6
 78
     2
 67
     7
 79
     5
170
     0
171
     0
290
     0
174
     0
 93
        1
 44
0.0
173
     0
291
     1
 45
0.0
  0
VISUALSTYLE
  5
33
102
{ACAD_REACTORS
330
2A
102
}
102
{ACAD_XDICTIONARY
360
420
102
}
330
2A
100
AcDbVisualStyle
  2
Realistic
 70
     8
 71
     2
 72
     2
 73
     0
 90
        0
 40
-0.6
 41
-30.0
 62
     5
 63
     7
421
 16777215
 74
     1
 91
        0
 64
     7
 65
   257
 75
     1
175
     1
 42
1.0
 92
        8
 66
     8
424
  7895160
 43
1.0
 76
     1
 77
     6
 78
     2
 67
     7
 79
     5
170
     0
171
     0
290
     0
174
     0
 93
       13
 44
0.0
173
     0
291
     0
 45
0.0
  0
VISUALSTYLE
  5
37
102
{ACAD_REACTORS
330
2A
102
}
102
{ACAD_XDICTIONARY
360
428
102
}
330
2A
100
AcDbVisualStyle
  2
Thicken
 70
    13
 71
     2
 72
     2
 73
     0
 90
        0
 40
-0.6
 41
-30.0
 62
     5
 63
     7
421
 16777215
 74
     1
 91
        4
 64
     7
 65
   257
 75
     1
175
     1
 42
1.0
 92
       12
 66
     7
 43
1.0
 76
     1
 77
     6
 78
     2
 67
     7
 79
     5
170
     0
171
     0
290
     0
174
     0
 93
        1
 44
0.0
173
     0
291
     1
 45
0.0
  0
DICTIONARY
  5
430
330
16B
100
AcDbDictionary
280
     1
281
     1
  3
ACAD_ROUNDTRIP_2008_TABLESTYLE_CELLSTYLEMAP
360
431
  0
DICTIONARY
  5
418
330
2F
100
AcDbDictionary
280
     1
281
     1
  3
ACAD_XREC_ROUNDTRIP
360
419
  0
DICTIONARY
  5
41C
330
31
100
AcDbDictionary
280
     1
281
     1
  3
ACAD_XREC_ROUNDTRIP
360
41D
  0
DICTIONARY
  5
41A
330
30
100
AcDbDictionary
280
     1
281
     1
  3
ACAD_XREC_ROUNDTRIP
360
41B
  0
DICTIONARY
  5
41E
330
32
100
AcDbDictionary
280
     1
281
     1
  3
ACAD_XREC_ROUNDTRIP
360
41F
  0
DICTIONARY
  5
426
330
36
100
AcDbDictionary
280
     1
281
     1
  3
ACAD_XREC_ROUNDTRIP
360
427
  0
DICTIONARY
  5
42E
330
3A
100
AcDbDictionary
280
     1
281
     1
  3
ACAD_XREC_ROUNDTRIP
360
42F
  0
DICTIONARY
  5
422
330
34
100
AcDbDictionary
280
     1
281
     1
  3
ACAD_XREC_ROUNDTRIP
360
423
  0
DICTIONARY
  5
424
330
35
100
AcDbDictionary
280
     1
281
     1
  3
ACAD_XREC_ROUNDTRIP
360
425
  0
DICTIONARY
  5
42C
330
39
100
AcDbDictionary
280
     1
281
     1
  3
ACAD_XREC_ROUNDTRIP
360
42D
  0
DICTIONARY
  5
410
330
2B
100
AcDbDictionary
280
     1
281
     1
  3
ACAD_XREC_ROUNDTRIP
360
411
  0
DICTIONARY
  5
412
330
2C
100
AcDbDictionary
280
     1
281
     1
  3
ACAD_XREC_ROUNDTRIP
360
413
  0
DICTIONARY
  5
414
330
2D
100
AcDbDictionary
280
     1
281
     1
  3
ACAD_XREC_ROUNDTRIP
360
415
  0
DICTIONARY
  5
416
330
2E
100
AcDbDictionary
280
     1
281
     1
  3
ACAD_XREC_ROUNDTRIP
360
417
  0
DICTIONARY
  5
42A
330
38
100
AcDbDictionary
280
     1
281
     1
  3
ACAD_XREC_ROUNDTRIP
360
42B
  0
DICTIONARY
  5
420
330
33
100
AcDbDictionary
280
     1
281
     1
  3
ACAD_XREC_ROUNDTRIP
360
421
  0
DICTIONARY
  5
428
330
37
100
AcDbDictionary
280
     1
281
     1
  3
ACAD_XREC_ROUNDTRIP
360
429
  0
CELLSTYLEMAP
  5
431
102
{ACAD_REACTORS
330
430
102
}
330
430
100
AcDbCellStyleMap
 90
        3
300
CELLSTYLE
  1
TABLEFORMAT_BEGIN
 90
        5
170
     1
 91
        0
 92
        0
 62
   257
 93
        1
300
CONTENTFORMAT
  1
CONTENTFORMAT_BEGIN
 90
        0
 91
        0
 92
        4
 93
        0
300

 40
0.0
140
1.0
 94
        5
 62
     0
340
11
144
3.0
309
CONTENTFORMAT_END
171
     0
 94
        6
 95
        1
302
GRIDFORMAT
  1
GRIDFORMAT_BEGIN
 90
        0
 91
        1
 62
     0
 92
       -2
340
0
 93
        0
 40
0.045
309
GRIDFORMAT_END
 95
        2
302
GRIDFORMAT
  1
GRIDFORMAT_BEGIN
 90
        0
 91
        1
 62
     0
 92
       -2
340
0
 93
        0
 40
0.045
309
GRIDFORMAT_END
 95
        4
302
GRIDFORMAT
  1
GRIDFORMAT_BEGIN
 90
        0
 91
        1
 62
     0
 92
       -2
340
0
 93
        0
 40
0.045
309
GRIDFORMAT_END
 95
        8
302
GRIDFORMAT
  1
GRIDFORMAT_BEGIN
 90
        0
 91
        1
 62
     0
 92
       -2
340
0
 93
        0
 40
0.045
309
GRIDFORMAT_END
 95
       16
302
GRIDFORMAT
  1
GRIDFORMAT_BEGIN
 90
        0
 91
        1
 62
     0
 92
       -2
340
0
 93
        0
 40
0.045
309
GRIDFORMAT_END
 95
       32
302
GRIDFORMAT
  1
GRIDFORMAT_BEGIN
 90
        0
 91
        1
 62
     0
 92
       -2
340
0
 93
        0
 40
0.045
309
GRIDFORMAT_END
309
TABLEFORMAT_END
  1
CELLSTYLE_BEGIN
 90
        1
 91
        1
300
_TITLE
309
CELLSTYLE_END
300
CELLSTYLE
  1
TABLEFORMAT_BEGIN
 90
        5
170
     1
 91
        0
 92
        0
 62
   257
 93
        1
300
CONTENTFORMAT
  1
CONTENTFORMAT_BEGIN
 90
        0
 91
        0
 92
        4
 93
        0
300

 40
0.0
140
1.0
 94
        5
 62
     0
340
11
144
3.0
309
CONTENTFORMAT_END
171
     0
 94
        6
 95
        1
302
GRIDFORMAT
  1
GRIDFORMAT_BEGIN
 90
        0
 91
        1
 62
     0
 92
       -2
340
0
 93
        0
 40
0.045
309
GRIDFORMAT_END
 95
        2
302
GRIDFORMAT
  1
GRIDFORMAT_BEGIN
 90
        0
 91
        1
 62
     0
 92
       -2
340
0
 93
        0
 40
0.045
309
GRIDFORMAT_END
 95
        4
302
GRIDFORMAT
  1
GRIDFORMAT_BEGIN
 90
        0
 91
        1
 62
     0
 92
       -2
340
0
 93
        0
 40
0.045
309
GRIDFORMAT_END
 95
        8
302
GRIDFORMAT
  1
GRIDFORMAT_BEGIN
 90
        0
 91
        1
 62
     0
 92
       -2
340
0
 93
        0
 40
0.045
309
GRIDFORMAT_END
 95
       16
302
GRIDFORMAT
  1
GRIDFORMAT_BEGIN
 90
        0
 91
        1
 62
     0
 92
       -2
340
0
 93
        0
 40
0.045
309
GRIDFORMAT_END
 95
       32
302
GRIDFORMAT
  1
GRIDFORMAT_BEGIN
 90
        0
 91
        1
 62
     0
 92
       -2
340
0
 93
        0
 40
0.045
309
GRIDFORMAT_END
309
TABLEFORMAT_END
  1
CELLSTYLE_BEGIN
 90
        2
 91
        1
300
_HEADER
309
CELLSTYLE_END
300
CELLSTYLE
  1
TABLEFORMAT_BEGIN
 90
        5
170
     1
 91
        0
 92
        0
 62
   257
 93
        1
300
CONTENTFORMAT
  1
CONTENTFORMAT_BEGIN
 90
        0
 91
        0
 92
        4
 93
        0
300

 40
0.0
140
1.0
 94
        5
 62
     0
340
11
144
3.0
309
CONTENTFORMAT_END
171
     0
 94
        6
 95
        1
302
GRIDFORMAT
  1
GRIDFORMAT_BEGIN
 90
        0
 91
        1
 62
     0
 92
       -2
340
0
 93
        0
 40
0.045
309
GRIDFORMAT_END
 95
        2
302
GRIDFORMAT
  1
GRIDFORMAT_BEGIN
 90
        0
 91
        1
 62
     0
 92
       -2
340
0
 93
        0
 40
0.045
309
GRIDFORMAT_END
 95
        4
302
GRIDFORMAT
  1
GRIDFORMAT_BEGIN
 90
        0
 91
        1
 62
     0
 92
       -2
340
0
 93
        0
 40
0.045
309
GRIDFORMAT_END
 95
        8
302
GRIDFORMAT
  1
GRIDFORMAT_BEGIN
 90
        0
 91
        1
 62
     0
 92
       -2
340
0
 93
        0
 40
0.045
309
GRIDFORMAT_END
 95
       16
302
GRIDFORMAT
  1
GRIDFORMAT_BEGIN
 90
        0
 91
        1
 62
     0
 92
       -2
340
0
 93
        0
 40
0.045
309
GRIDFORMAT_END
 95
       32
302
GRIDFORMAT
  1
GRIDFORMAT_BEGIN
 90
        0
 91
        1
 62
     0
 92
       -2
340
0
 93
        0
 40
0.045
309
GRIDFORMAT_END
309
TABLEFORMAT_END
  1
CELLSTYLE_BEGIN
 90
        3
 91
        2
300
_DATA
309
CELLSTYLE_END
  0
XRECORD
  5
419
102
{ACAD_REACTORS
330
418
102
}
330
418
100
AcDbXrecord
280
     1
102
RTVSPropertyOp0
 70
     1
102
RTVSPropertyOp1
 70
     1
102
RTVSPropertyOp2
 70
     1
102
RTVSPropertyOp3
 70
     1
102
RTVSPropertyOp4
 70
     1
102
RTVSPropertyOp5
 70
     1
102
RTVSPropertyOp6
 70
     1
102
RTVSPropertyOp7
 70
     1
102
RTVSPropertyOp8
 70
     1
102
RTVSPropertyOp9
 70
     1
102
RTVSPropertyOp10
 70
     1
102
RTVSPropertyOp11
 70
     1
102
RTVSPropertyOp12
 70
     1
102
RTVSPropertyOp13
 70
     1
102
RTVSPropertyOp14
 70
     1
102
RTVSPropertyOp15
 70
     1
102
RTVSPropertyOp16
 70
     1
102
RTVSPropertyOp17
 70
     1
102
RTVSPropertyOp18
 70
     1
102
RTVSPropertyOp19
 70
     1
102
RTVSPropertyOp20
 70
     1
102
RTVSPropertyOp21
 70
     1
102
RTVSPropertyOp22
 70
     1
102
RTVSPropertyOp23
 70
     1
102
RTVSPropertyOp24
 70
     1
102
RTVSPropertyOp25
 70
     1
102
RTVSPropertyOp26
 70
     1
102
RTVSPropertyOp27
 70
     1
  0
XRECORD
  5
41D
102
{ACAD_REACTORS
330
41C
102
}
330
41C
100
AcDbXrecord
280
     1
102
RTVSPropertyOp0
 70
     1
102
RTVSPropertyOp1
 70
     1
102
RTVSPropertyOp2
 70
     1
102
RTVSPropertyOp3
 70
     1
102
RTVSPropertyOp4
 70
     1
102
RTVSPropertyOp5
 70
     1
102
RTVSPropertyOp6
 70
     1
102
RTVSPropertyOp7
 70
     1
102
RTVSPropertyOp8
 70
     1
102
RTVSPropertyOp9
 70
     1
102
RTVSPropertyOp10
 70
     1
102
RTVSPropertyOp11
 70
     1
102
RTVSPropertyOp12
 70
     1
102
RTVSPropertyOp13
 70
     1
102
RTVSPropertyOp14
 70
     1
102
RTVSPropertyOp15
 70
     1
102
RTVSPropertyOp16
 70
     1
102
RTVSPropertyOp17
 70
     1
102
RTVSPropertyOp18
 70
     1
102
RTVSPropertyOp19
 70
     1
102
RTVSPropertyOp20
 70
     1
102
RTVSPropertyOp21
 70
     1
102
RTVSPropertyOp22
 70
     1
102
RTVSPropertyOp23
 70
     1
102
RTVSPropertyOp24
 70
     1
102
RTVSPropertyOp25
 70
     1
102
RTVSPropertyOp26
 70
     1
102
RTVSPropertyOp27
 70
     1
  0
XRECORD
  5
41B
102
{ACAD_REACTORS
330
41A
102
}
330
41A
100
AcDbXrecord
280
     1
102
RTVSPropertyOp0
 70
     1
102
RTVSPropertyOp1
 70
     1
102
RTVSPropertyOp2
 70
     1
102
RTVSPropertyOp3
 70
     1
102
RTVSPropertyOp4
 70
     1
102
RTVSPropertyOp5
 70
     1
102
RTVSPropertyOp6
 70
     1
102
RTVSPropertyOp7
 70
     1
102
RTVSPropertyOp8
 70
     1
102
RTVSPropertyOp9
 70
     1
102
RTVSPropertyOp10
 70
     1
102
RTVSPropertyOp11
 70
     1
102
RTVSPropertyOp12
 70
     1
102
RTVSPropertyOp13
 70
     1
102
RTVSPropertyOp14
 70
     1
102
RTVSPropertyOp15
 70
     1
102
RTVSPropertyOp16
 70
     1
102
RTVSPropertyOp17
 70
     1
102
RTVSPropertyOp18
 70
     1
102
RTVSPropertyOp19
 70
     1
102
RTVSPropertyOp20
 70
     1
102
RTVSPropertyOp21
 70
     1
102
RTVSPropertyOp22
 70
     1
102
RTVSPropertyOp23
 70
     1
102
RTVSPropertyOp24
 70
     1
102
RTVSPropertyOp25
 70
     1
102
RTVSPropertyOp26
 70
     1
102
RTVSPropertyOp27
 70
     1
  0
XRECORD
  5
41F
102
{ACAD_REACTORS
330
41E
102
}
330
41E
100
AcDbXrecord
280
     1
102
RTVSPropertyOp0
 70
     1
102
RTVSPropertyOp1
 70
     1
102
RTVSPropertyOp2
 70
     1
102
RTVSPropertyOp3
 70
     1
102
RTVSPropertyOp4
 70
     1
102
RTVSPropertyOp5
 70
     1
102
RTVSPropertyOp6
 70
     1
102
RTVSPropertyOp7
 70
     1
102
RTVSPropertyOp8
 70
     1
102
RTVSPropertyOp9
 70
     1
102
RTVSPropertyOp10
 70
     1
102
RTVSPropertyOp11
 70
     1
102
RTVSPropertyOp12
 70
     1
102
RTVSPropertyOp13
 70
     1
102
RTVSPropertyOp14
 70
     1
102
RTVSPropertyOp15
 70
     1
102
RTVSPropertyOp16
 70
     1
102
RTVSPropertyOp17
 70
     1
102
RTVSPropertyOp18
 70
     1
102
RTVSPropertyOp19
 70
     1
102
RTVSPropertyOp20
 70
     1
102
RTVSPropertyOp21
 70
     1
102
RTVSPropertyOp22
 70
     1
102
RTVSPropertyOp23
 70
     1
102
RTVSPropertyOp24
 70
     1
102
RTVSPropertyOp25
 70
     1
102
RTVSPropertyOp26
 70
     1
102
RTVSPropertyOp27
 70
     1
  0
XRECORD
  5
427
102
{ACAD_REACTORS
330
426
102
}
330
426
100
AcDbXrecord
280
     1
102
RTVSPropertyOp0
 70
     1
102
RTVSPropertyOp1
 70
     1
102
RTVSPropertyOp2
 70
     1
102
RTVSPropertyOp3
 70
     1
102
RTVSPropertyOp4
 70
     1
102
RTVSPropertyOp5
 70
     1
102
RTVSPropertyOp6
 70
     1
102
RTVSPropertyOp7
 70
     1
102
RTVSPropertyOp8
 70
     1
102
RTVSPropertyOp9
 70
     1
102
RTVSPropertyOp10
 70
     1
102
RTVSPropertyOp11
 70
     1
102
RTVSPropertyOp12
 70
     1
102
RTVSPropertyOp13
 70
     1
102
RTVSPropertyOp14
 70
     1
102
RTVSPropertyOp15
 70
     1
102
RTVSPropertyOp16
 70
     1
102
RTVSPropertyOp17
 70
     1
102
RTVSPropertyOp18
 70
     1
102
RTVSPropertyOp19
 70
     1
102
RTVSPropertyOp20
 70
     1
102
RTVSPropertyOp21
 70
     1
102
RTVSPropertyOp22
 70
     1
102
RTVSPropertyOp23
 70
     1
102
RTVSPropertyOp24
 70
     1
102
RTVSPropertyOp25
 70
     1
102
RTVSPropertyOp26
 70
     1
102
RTVSPropertyOp27
 70
     1
  0
XRECORD
  5
42F
102
{ACAD_REACTORS
330
42E
102
}
330
42E
100
AcDbXrecord
280
     1
102
RTVSPropertyOp0
 70
     1
102
RTVSPropertyOp1
 70
     1
102
RTVSPropertyOp2
 70
     1
102
RTVSPropertyOp3
 70
     1
102
RTVSPropertyOp4
 70
     1
102
RTVSPropertyOp5
 70
     1
102
RTVSPropertyOp6
 70
     1
102
RTVSPropertyOp7
 70
     1
102
RTVSPropertyOp8
 70
     1
102
RTVSPropertyOp9
 70
     1
102
RTVSPropertyOp10
 70
     1
102
RTVSPropertyOp11
 70
     1
102
RTVSPropertyOp12
 70
     1
102
RTVSPropertyOp13
 70
     1
102
RTVSPropertyOp14
 70
     1
102
RTVSPropertyOp15
 70
     1
102
RTVSPropertyOp16
 70
     1
102
RTVSPropertyOp17
 70
     1
102
RTVSPropertyOp18
 70
     1
102
RTVSPropertyOp19
 70
     1
102
RTVSPropertyOp20
 70
     1
102
RTVSPropertyOp21
 70
     1
102
RTVSPropertyOp22
 70
     1
102
RTVSPropertyOp23
 70
     1
102
RTVSPropertyOp24
 70
     1
102
RTVSPropertyOp25
 70
     1
102
RTVSPropertyOp26
 70
     1
102
RTVSPropertyOp27
 70
     1
  0
XRECORD
  5
423
102
{ACAD_REACTORS
330
422
102
}
330
422
100
AcDbXrecord
280
     1
102
RTVSPropertyOp0
 70
     1
102
RTVSPropertyOp1
 70
     1
102
RTVSPropertyOp2
 70
     1
102
RTVSPropertyOp3
 70
     1
102
RTVSPropertyOp4
 70
     1
102
RTVSPropertyOp5
 70
     1
102
RTVSPropertyOp6
 70
     1
102
RTVSPropertyOp7
 70
     1
102
RTVSPropertyOp8
 70
     1
102
RTVSPropertyOp9
 70
     1
102
RTVSPropertyOp10
 70
     1
102
RTVSPropertyOp11
 70
     1
102
RTVSPropertyOp12
 70
     1
102
RTVSPropertyOp13
 70
     1
102
RTVSPropertyOp14
 70
     1
102
RTVSPropertyOp15
 70
     1
102
RTVSPropertyOp16
 70
     1
102
RTVSPropertyOp17
 70
     1
102
RTVSPropertyOp18
 70
     1
102
RTVSPropertyOp19
 70
     1
102
RTVSPropertyOp20
 70
     1
102
RTVSPropertyOp21
 70
     1
102
RTVSPropertyOp22
 70
     1
102
RTVSPropertyOp23
 70
     1
102
RTVSPropertyOp24
 70
     1
102
RTVSPropertyOp25
 70
     1
102
RTVSPropertyOp26
 70
     1
102
RTVSPropertyOp27
 70
     1
  0
XRECORD
  5
425
102
{ACAD_REACTORS
330
424
102
}
330
424
100
AcDbXrecord
280
     1
102
RTVSPropertyOp0
 70
     1
102
RTVSPropertyOp1
 70
     1
102
RTVSPropertyOp2
 70
     1
102
RTVSPropertyOp3
 70
     1
102
RTVSPropertyOp4
 70
     1
102
RTVSPropertyOp5
 70
     1
102
RTVSPropertyOp6
 70
     1
102
RTVSPropertyOp7
 70
     1
102
RTVSPropertyOp8
 70
     1
102
RTVSPropertyOp9
 70
     1
102
RTVSPropertyOp10
 70
     1
102
RTVSPropertyOp11
 70
     1
102
RTVSPropertyOp12
 70
     1
102
RTVSPropertyOp13
 70
     1
102
RTVSPropertyOp14
 70
     1
102
RTVSPropertyOp15
 70
     1
102
RTVSPropertyOp16
 70
     1
102
RTVSPropertyOp17
 70
     1
102
RTVSPropertyOp18
 70
     1
102
RTVSPropertyOp19
 70
     1
102
RTVSPropertyOp20
 70
     1
102
RTVSPropertyOp21
 70
     1
102
RTVSPropertyOp22
 70
     1
102
RTVSPropertyOp23
 70
     1
102
RTVSPropertyOp24
 70
     1
102
RTVSPropertyOp25
 70
     1
102
RTVSPropertyOp26
 70
     1
102
RTVSPropertyOp27
 70
     1
  0
XRECORD
  5
42D
102
{ACAD_REACTORS
330
42C
102
}
330
42C
100
AcDbXrecord
280
     1
102
RTVSPropertyOp0
 70
     1
102
RTVSPropertyOp1
 70
     1
102
RTVSPropertyOp2
 70
     1
102
RTVSPropertyOp3
 70
     1
102
RTVSPropertyOp4
 70
     1
102
RTVSPropertyOp5
 70
     1
102
RTVSPropertyOp6
 70
     1
102
RTVSPropertyOp7
 70
     1
102
RTVSPropertyOp8
 70
     1
102
RTVSPropertyOp9
 70
     1
102
RTVSPropertyOp10
 70
     1
102
RTVSPropertyOp11
 70
     1
102
RTVSPropertyOp12
 70
     1
102
RTVSPropertyOp13
 70
     1
102
RTVSPropertyOp14
 70
     1
102
RTVSPropertyOp15
 70
     1
102
RTVSPropertyOp16
 70
     1
102
RTVSPropertyOp17
 70
     1
102
RTVSPropertyOp18
 70
     1
102
RTVSPropertyOp19
 70
     1
102
RTVSPropertyOp20
 70
     1
102
RTVSPropertyOp21
 70
     1
102
RTVSPropertyOp22
 70
     1
102
RTVSPropertyOp23
 70
     1
102
RTVSPropertyOp24
 70
     1
102
RTVSPropertyOp25
 70
     1
102
RTVSPropertyOp26
 70
     1
102
RTVSPropertyOp27
 70
     1
  0
XRECORD
  5
411
102
{ACAD_REACTORS
330
410
102
}
330
410
100
AcDbXrecord
280
     1
102
RTVSPropertyOp0
 70
     1
102
RTVSPropertyOp1
 70
     1
102
RTVSPropertyOp2
 70
     1
102
RTVSPropertyOp3
 70
     1
102
RTVSPropertyOp4
 70
     1
102
RTVSPropertyOp5
 70
     1
102
RTVSPropertyOp6
 70
     1
102
RTVSPropertyOp7
 70
     1
102
RTVSPropertyOp8
 70
     1
102
RTVSPropertyOp9
 70
     1
102
RTVSPropertyOp10
 70
     1
102
RTVSPropertyOp11
 70
     1
102
RTVSPropertyOp12
 70
     1
102
RTVSPropertyOp13
 70
     1
102
RTVSPropertyOp14
 70
     1
102
RTVSPropertyOp15
 70
     1
102
RTVSPropertyOp16
 70
     1
102
RTVSPropertyOp17
 70
     1
102
RTVSPropertyOp18
 70
     1
102
RTVSPropertyOp19
 70
     1
102
RTVSPropertyOp20
 70
     1
102
RTVSPropertyOp21
 70
     1
102
RTVSPropertyOp22
 70
     1
102
RTVSPropertyOp23
 70
     1
102
RTVSPropertyOp24
 70
     1
102
RTVSPropertyOp25
 70
     1
102
RTVSPropertyOp26
 70
     1
102
RTVSPropertyOp27
 70
     1
  0
XRECORD
  5
413
102
{ACAD_REACTORS
330
412
102
}
330
412
100
AcDbXrecord
280
     1
102
RTVSPropertyOp0
 70
     1
102
RTVSPropertyOp1
 70
     1
102
RTVSPropertyOp2
 70
     1
102
RTVSPropertyOp3
 70
     1
102
RTVSPropertyOp4
 70
     1
102
RTVSPropertyOp5
 70
     1
102
RTVSPropertyOp6
 70
     1
102
RTVSPropertyOp7
 70
     1
102
RTVSPropertyOp8
 70
     1
102
RTVSPropertyOp9
 70
     1
102
RTVSPropertyOp10
 70
     1
102
RTVSPropertyOp11
 70
     1
102
RTVSPropertyOp12
 70
     1
102
RTVSPropertyOp13
 70
     1
102
RTVSPropertyOp14
 70
     1
102
RTVSPropertyOp15
 70
     1
102
RTVSPropertyOp16
 70
     1
102
RTVSPropertyOp17
 70
     1
102
RTVSPropertyOp18
 70
     1
102
RTVSPropertyOp19
 70
     1
102
RTVSPropertyOp20
 70
     1
102
RTVSPropertyOp21
 70
     1
102
RTVSPropertyOp22
 70
     1
102
RTVSPropertyOp23
 70
     1
102
RTVSPropertyOp24
 70
     1
102
RTVSPropertyOp25
 70
     1
102
RTVSPropertyOp26
 70
     1
102
RTVSPropertyOp27
 70
     1
  0
XRECORD
  5
415
102
{ACAD_REACTORS
330
414
102
}
330
414
100
AcDbXrecord
280
     1
102
RTVSPropertyOp0
 70
     1
102
RTVSPropertyOp1
 70
     1
102
RTVSPropertyOp2
 70
     1
102
RTVSPropertyOp3
 70
     1
102
RTVSPropertyOp4
 70
     1
102
RTVSPropertyOp5
 70
     1
102
RTVSPropertyOp6
 70
     1
102
RTVSPropertyOp7
 70
     1
102
RTVSPropertyOp8
 70
     1
102
RTVSPropertyOp9
 70
     1
102
RTVSPropertyOp10
 70
     1
102
RTVSPropertyOp11
 70
     1
102
RTVSPropertyOp12
 70
     1
102
RTVSPropertyOp13
 70
     1
102
RTVSPropertyOp14
 70
     1
102
RTVSPropertyOp15
 70
     1
102
RTVSPropertyOp16
 70
     1
102
RTVSPropertyOp17
 70
     1
102
RTVSPropertyOp18
 70
     1
102
RTVSPropertyOp19
 70
     1
102
RTVSPropertyOp20
 70
     1
102
RTVSPropertyOp21
 70
     1
102
RTVSPropertyOp22
 70
     1
102
RTVSPropertyOp23
 70
     1
102
RTVSPropertyOp24
 70
     1
102
RTVSPropertyOp25
 70
     1
102
RTVSPropertyOp26
 70
     1
102
RTVSPropertyOp27
 70
     1
  0
XRECORD
  5
417
102
{ACAD_REACTORS
330
416
102
}
330
416
100
AcDbXrecord
280
     1
102
RTVSPropertyOp0
 70
     1
102
RTVSPropertyOp1
 70
     1
102
RTVSPropertyOp2
 70
     1
102
RTVSPropertyOp3
 70
     1
102
RTVSPropertyOp4
 70
     1
102
RTVSPropertyOp5
 70
     1
102
RTVSPropertyOp6
 70
     1
102
RTVSPropertyOp7
 70
     1
102
RTVSPropertyOp8
 70
     1
102
RTVSPropertyOp9
 70
     1
102
RTVSPropertyOp10
 70
     1
102
RTVSPropertyOp11
 70
     1
102
RTVSPropertyOp12
 70
     1
102
RTVSPropertyOp13
 70
     1
102
RTVSPropertyOp14
 70
     1
102
RTVSPropertyOp15
 70
     1
102
RTVSPropertyOp16
 70
     1
102
RTVSPropertyOp17
 70
     1
102
RTVSPropertyOp18
 70
     1
102
RTVSPropertyOp19
 70
     1
102
RTVSPropertyOp20
 70
     1
102
RTVSPropertyOp21
 70
     1
102
RTVSPropertyOp22
 70
     1
102
RTVSPropertyOp23
 70
     1
102
RTVSPropertyOp24
 70
     1
102
RTVSPropertyOp25
 70
     1
102
RTVSPropertyOp26
 70
     1
102
RTVSPropertyOp27
 70
     1
  0
XRECORD
  5
42B
102
{ACAD_REACTORS
330
42A
102
}
330
42A
100
AcDbXrecord
280
     1
102
RTVSPropertyOp0
 70
     1
102
RTVSPropertyOp1
 70
     1
102
RTVSPropertyOp2
 70
     1
102
RTVSPropertyOp3
 70
     1
102
RTVSPropertyOp4
 70
     1
102
RTVSPropertyOp5
 70
     1
102
RTVSPropertyOp6
 70
     1
102
RTVSPropertyOp7
 70
     1
102
RTVSPropertyOp8
 70
     1
102
RTVSPropertyOp9
 70
     1
102
RTVSPropertyOp10
 70
     1
102
RTVSPropertyOp11
 70
     1
102
RTVSPropertyOp12
 70
     1
102
RTVSPropertyOp13
 70
     1
102
RTVSPropertyOp14
 70
     1
102
RTVSPropertyOp15
 70
     1
102
RTVSPropertyOp16
 70
     1
102
RTVSPropertyOp17
 70
     1
102
RTVSPropertyOp18
 70
     1
102
RTVSPropertyOp19
 70
     1
102
RTVSPropertyOp20
 70
     1
102
RTVSPropertyOp21
 70
     1
102
RTVSPropertyOp22
 70
     1
102
RTVSPropertyOp23
 70
     1
102
RTVSPropertyOp24
 70
     1
102
RTVSPropertyOp25
 70
     1
102
RTVSPropertyOp26
 70
     1
102
RTVSPropertyOp27
 70
     1
  0
XRECORD
  5
421
102
{ACAD_REACTORS
330
420
102
}
330
420
100
AcDbXrecord
280
     1
102
RTVSPropertyOp0
 70
     1
102
RTVSPropertyOp1
 70
     1
102
RTVSPropertyOp2
 70
     1
102
RTVSPropertyOp3
 70
     1
102
RTVSPropertyOp4
 70
     1
102
RTVSPropertyOp5
 70
     1
102
RTVSPropertyOp6
 70
     1
102
RTVSPropertyOp7
 70
     1
102
RTVSPropertyOp8
 70
     1
102
RTVSPropertyOp9
 70
     1
102
RTVSPropertyOp10
 70
     1
102
RTVSPropertyOp11
 70
     1
102
RTVSPropertyOp12
 70
     1
102
RTVSPropertyOp13
 70
     1
102
RTVSPropertyOp14
 70
     1
102
RTVSPropertyOp15
 70
     1
102
RTVSPropertyOp16
 70
     1
102
RTVSPropertyOp17
 70
     1
102
RTVSPropertyOp18
 70
     1
102
RTVSPropertyOp19
 70
     1
102
RTVSPropertyOp20
 70
     1
102
RTVSPropertyOp21
 70
     1
102
RTVSPropertyOp22
 70
     1
102
RTVSPropertyOp23
 70
     1
102
RTVSPropertyOp24
 70
     1
102
RTVSPropertyOp25
 70
     1
102
RTVSPropertyOp26
 70
     1
102
RTVSPropertyOp27
 70
     1
  0
XRECORD
  5
429
102
{ACAD_REACTORS
330
428
102
}
330
428
100
AcDbXrecord
280
     1
102
RTVSPropertyOp0
 70
     1
102
RTVSPropertyOp1
 70
     1
102
RTVSPropertyOp2
 70
     1
102
RTVSPropertyOp3
 70
     1
102
RTVSPropertyOp4
 70
     1
102
RTVSPropertyOp5
 70
     1
102
RTVSPropertyOp6
 70
     1
102
RTVSPropertyOp7
 70
     1
102
RTVSPropertyOp8
 70
     1
102
RTVSPropertyOp9
 70
     1
102
RTVSPropertyOp10
 70
     1
102
RTVSPropertyOp11
 70
     1
102
RTVSPropertyOp12
 70
     1
102
RTVSPropertyOp13
 70
     1
102
RTVSPropertyOp14
 70
     1
102
RTVSPropertyOp15
 70
     1
102
RTVSPropertyOp16
 70
     1
102
RTVSPropertyOp17
 70
     1
102
RTVSPropertyOp18
 70
     1
102
RTVSPropertyOp19
 70
     1
102
RTVSPropertyOp20
 70
     1
102
RTVSPropertyOp21
 70
     1
102
RTVSPropertyOp22
 70
     1
102
RTVSPropertyOp23
 70
     1
102
RTVSPropertyOp24
 70
     1
102
RTVSPropertyOp25
 70
     1
102
RTVSPropertyOp26
 70
     1
102
RTVSPropertyOp27
 70
     1
  0
ENDSEC
  0
EOF
